  0
SECTION
  2
HEADER
  9
$ACADVER
  1
AC1009
  9
$INSBASE
 10
0.0
 20
0.0
 30
0.0
  9
$EXTMIN
 10
-1.9839959115387711
 20
-67.6696578258157615
 30
0.0
  9
$EXTMAX
 10
141.3283706947707969
 20
33.15613213162694
 30
0.0
  9
$LIMMIN
 10
0.0
 20
0.0
  9
$LIMMAX
 10
12.0
 20
9.0
  9
$ORTHOMODE
 70
     0
  9
$REGENMODE
 70
     1
  9
$FILLMODE
 70
     1
  9
$QTEXTMODE
 70
     0
  9
$MIRRTEXT
 70
     0
  9
$DRAGMODE
 70
     2
  9
$LTSCALE
 40
1.0
  9
$OSMODE
 70
    39
  9
$ATTMODE
 70
     1
  9
$TEXTSIZE
 40
0.2
  9
$TRACEWID
 40
0.05
  9
$TEXTSTYLE
  7
STANDARD
  9
$CLAYER
  8
OUTLINE
  9
$CELTYPE
  6
BYLAYER
  9
$CECOLOR
 62
   256
  9
$DIMSCALE
 40
1.0
  9
$DIMASZ
 40
0.18
  9
$DIMEXO
 40
0.0625
  9
$DIMDLI
 40
0.38
  9
$DIMRND
 40
0.0
  9
$DIMDLE
 40
0.0
  9
$DIMEXE
 40
0.18
  9
$DIMTP
 40
0.0
  9
$DIMTM
 40
0.0
  9
$DIMTXT
 40
0.18
  9
$DIMCEN
 40
0.09
  9
$DIMTSZ
 40
0.0
  9
$DIMTOL
 70
     0
  9
$DIMLIM
 70
     0
  9
$DIMTIH
 70
     1
  9
$DIMTOH
 70
     1
  9
$DIMSE1
 70
     0
  9
$DIMSE2
 70
     0
  9
$DIMTAD
 70
     0
  9
$DIMZIN
 70
     0
  9
$DIMBLK
  1

  9
$DIMASO
 70
     1
  9
$DIMSHO
 70
     1
  9
$DIMPOST
  1

  9
$DIMAPOST
  1

  9
$DIMALT
 70
     0
  9
$DIMALTD
 70
     2
  9
$DIMALTF
 40
25.3999999999999986
  9
$DIMLFAC
 40
1.0
  9
$DIMTOFL
 70
     0
  9
$DIMTVP
 40
0.0
  9
$DIMTIX
 70
     0
  9
$DIMSOXD
 70
     0
  9
$DIMSAH
 70
     0
  9
$DIMBLK1
  1

  9
$DIMBLK2
  1

  9
$DIMSTYLE
  2
STANDARD
  9
$DIMCLRD
 70
     0
  9
$DIMCLRE
 70
     0
  9
$DIMCLRT
 70
     0
  9
$DIMTFAC
 40
1.0
  9
$DIMGAP
 40
0.09
  9
$LUNITS
 70
     2
  9
$LUPREC
 70
     4
  9
$SKETCHINC
 40
0.1
  9
$FILLETRAD
 40
0.0
  9
$AUNITS
 70
     0
  9
$AUPREC
 70
     0
  9
$MENU
  1
.
  9
$ELEVATION
 40
0.0
  9
$PELEVATION
 40
0.0
  9
$THICKNESS
 40
0.0
  9
$LIMCHECK
 70
     0
  9
$BLIPMODE
 70
     0
  9
$CHAMFERA
 40
0.0
  9
$CHAMFERB
 40
0.0
  9
$SKPOLY
 70
     0
  9
$TDCREATE
 40
2458505.4430902781896293
  9
$TDUPDATE
 40
2458513.5305208340287209
  9
$TDINDWG
 40
1.0470949074
  9
$TDUSRTIMER
 40
1.0470949074
  9
$USRTIMER
 70
     1
  9
$ANGBASE
 50
0.0
  9
$ANGDIR
 70
     0
  9
$PDMODE
 70
     0
  9
$PDSIZE
 40
0.0
  9
$PLINEWID
 40
0.0
  9
$COORDS
 70
     1
  9
$SPLFRAME
 70
     0
  9
$SPLINETYPE
 70
     6
  9
$SPLINESEGS
 70
     8
  9
$ATTDIA
 70
     1
  9
$ATTREQ
 70
     1
  9
$HANDLING
 70
     1
  9
$HANDSEED
  5
852
  9
$SURFTAB1
 70
     6
  9
$SURFTAB2
 70
     6
  9
$SURFTYPE
 70
     6
  9
$SURFU
 70
     6
  9
$SURFV
 70
     6
  9
$UCSNAME
  2

  9
$UCSORG
 10
0.0
 20
0.0
 30
0.0
  9
$UCSXDIR
 10
1.0
 20
0.0
 30
0.0
  9
$UCSYDIR
 10
0.0
 20
1.0
 30
0.0
  9
$PUCSNAME
  2

  9
$PUCSORG
 10
0.0
 20
0.0
 30
0.0
  9
$PUCSXDIR
 10
1.0
 20
0.0
 30
0.0
  9
$PUCSYDIR
 10
0.0
 20
1.0
 30
0.0
  9
$USERI1
 70
     0
  9
$USERI2
 70
     0
  9
$USERI3
 70
     0
  9
$USERI4
 70
     0
  9
$USERI5
 70
     0
  9
$USERR1
 40
0.0
  9
$USERR2
 40
0.0
  9
$USERR3
 40
0.0
  9
$USERR4
 40
0.0
  9
$USERR5
 40
0.0
  9
$WORLDVIEW
 70
     1
  9
$SHADEDGE
 70
     3
  9
$SHADEDIF
 70
    70
  9
$TILEMODE
 70
     1
  9
$MAXACTVP
 70
    64
  9
$PLIMCHECK
 70
     0
  9
$PEXTMIN
 10
0.0
 20
0.0
 30
0.0
  9
$PEXTMAX
 10
0.0
 20
0.0
 30
0.0
  9
$PLIMMIN
 10
0.0
 20
0.0
  9
$PLIMMAX
 10
12.0
 20
9.0
  9
$UNITMODE
 70
     0
  9
$VISRETAIN
 70
     1
  9
$PLINEGEN
 70
     0
  9
$PSLTSCALE
 70
     1
  0
ENDSEC
  0
SECTION
  2
TABLES
  0
TABLE
  2
VPORT
 70
     1
  0
VPORT
  2
*ACTIVE
 70
     0
 10
0.0
 20
0.0
 11
1.0
 21
1.0
 12
68.9457620956362121
 22
-19.0269446307720216
 13
0.0
 23
0.0
 14
0.5
 24
0.5
 15
0.5
 25
0.5
 16
0.0
 26
0.0
 36
1.0
 17
0.0
 27
0.0
 37
0.0
 40
159.2686792894845951
 41
2.0843785632839218
 42
50.0
 43
0.0
 44
0.0
 50
0.0
 51
0.0
 71
     0
 72
  1000
 73
     1
 74
     3
 75
     0
 76
     0
 77
     0
 78
     0
  0
ENDTAB
  0
TABLE
  2
LTYPE
 70
     1
  0
LTYPE
  2
CONTINUOUS
 70
     0
  3
Solid line
 72
    65
 73
     0
 40
0.0
  0
ENDTAB
  0
TABLE
  2
LAYER
 70
     2
  0
LAYER
  2
0
 70
     0
 62
     7
  6
CONTINUOUS
  0
LAYER
  2
OUTLINE
 70
     0
 62
     7
  6
CONTINUOUS
  0
ENDTAB
  0
TABLE
  2
STYLE
 70
     2
  0
STYLE
  2
STANDARD
 70
     0
 40
0.0
 41
1.0
 50
0.0
 71
     0
 42
0.2
  3
txt
  4

  0
STYLE
  2
ANNOTATIVE
 70
     0
 40
0.0
 41
1.0
 50
0.0
 71
     0
 42
0.2
  3
txt
  4

  0
ENDTAB
  0
TABLE
  2
VIEW
 70
     0
  0
ENDTAB
  0
TABLE
  2
UCS
 70
     0
  0
ENDTAB
  0
TABLE
  2
APPID
 70
    11
  0
APPID
  2
ACAD
 70
     0
  0
APPID
  2
ACADANNOPO
 70
     0
  0
APPID
  2
ACADANNOTATIVE
 70
     0
  0
APPID
  2
ACAD_DSTYLE_DIMJAG
 70
     0
  0
APPID
  2
ACAD_DSTYLE_DIMTALN
 70
     0
  0
APPID
  2
ACAD_MLEADERVER
 70
     0
  0
APPID
  2
ACAD_NAV_VCDISPLAY
 70
     0
  0
APPID
  2
ACAD_EXEMPT_FROM_CAD_STANDARDS
 70
     0
  0
APPID
  2
ACAECLAYERSTANDARD
 70
     0
  0
APPID
  2
ACCMTRANSPARENCY
 70
     0
  0
APPID
  2
CONTENTBLOCKICON
 70
     0
  0
ENDTAB
  0
TABLE
  2
DIMSTYLE
 70
     2
  0
DIMSTYLE
  2
STANDARD
 70
     0
  3

  4

  5

  6

  7

 40
1.0
 41
0.18
 42
0.0625
 43
0.38
 44
0.18
 45
0.0
 46
0.0
 47
0.0
 48
0.0
140
0.18
141
0.09
142
0.0
143
25.3999999999999986
144
1.0
145
0.0
146
1.0
147
0.09
 71
     0
 72
     0
 73
     1
 74
     1
 75
     0
 76
     0
 77
     0
 78
     0
170
     0
171
     2
172
     0
173
     0
174
     0
175
     0
176
     0
177
     0
178
     0
  0
DIMSTYLE
  2
ANNOTATIVE
 70
     0
  3

  4

  5

  6

  7

 40
0.0
 41
0.18
 42
0.0625
 43
0.38
 44
0.18
 45
0.0
 46
0.0
 47
0.0
 48
0.0
140
0.18
141
0.09
142
0.0
143
25.3999999999999986
144
1.0
145
0.0
146
1.0
147
0.09
 71
     0
 72
     0
 73
     1
 74
     1
 75
     0
 76
     0
 77
     0
 78
     0
170
     0
171
     2
172
     0
173
     0
174
     0
175
     0
176
     0
177
     0
178
     0
  0
ENDTAB
  0
ENDSEC
  0
SECTION
  2
BLOCKS
  0
BLOCK
  8
0
  2
$MODEL_SPACE
 70
     0
 10
0.0
 20
0.0
 30
0.0
  3
$MODEL_SPACE
  1

  0
ENDBLK
  5
21
  8
0
  0
BLOCK
 67
     1
  8
0
  2
$PAPER_SPACE
 70
     0
 10
0.0
 20
0.0
 30
0.0
  3
$PAPER_SPACE
  1

  0
ENDBLK
  5
5B
 67
     1
  8
0
  0
BLOCK
  8
0
  2
124
 70
     0
 10
0.0
 20
0.0
 30
0.0
  3
124
  1

  0
POLYLINE
  5
39E
  8
0
 66
     1
 10
0.0
 20
0.0
 30
0.0
 70
     1
  0
VERTEX
  5
725
  8
0
 10
66.5386088820461055
 20
-22.2961415672314303
 30
0.0
  0
VERTEX
  5
726
  8
0
 10
66.5386088820461055
 20
-7.2961415672314258
 30
0.0
  0
VERTEX
  5
727
  8
0
 10
66.2386088820460941
 20
-7.2961415672314258
 30
0.0
  0
VERTEX
  5
728
  8
0
 10
66.2386088820460941
 20
-22.2961415672314303
 30
0.0
  0
SEQEND
  5
729
  8
0
  0
LINE
  5
39F
  8
0
 10
65.8886088820460998
 20
-14.7961415672314196
 30
0.0
 11
66.8886088820460998
 21
-14.7961415672314196
 31
0.0
  0
LINE
  5
3A0
  8
0
 10
65.8886088820460998
 20
-8.7961415672314267
 30
0.0
 11
66.8886088820460998
 21
-8.7961415672314267
 31
0.0
  0
LINE
  5
3A1
  8
0
 10
65.8886088820460998
 20
-20.7961415672314303
 30
0.0
 11
66.8886088820460998
 21
-20.7961415672314303
 31
0.0
  0
LINE
  5
3A2
  8
OUTLINE
 10
66.3886088820460998
 20
-20.5461415672314303
 30
0.0
 11
66.3886088820460998
 21
-21.0461415672314303
 31
0.0
  0
LINE
  5
3A3
  8
OUTLINE
 10
65.2621357159073341
 20
-20.7961415672314303
 30
0.0
 11
67.9578091378018598
 21
-20.7961415672314303
 31
0.0
  0
LINE
  5
3A4
  8
OUTLINE
 10
66.3886088820460998
 20
-14.5461415672314303
 30
0.0
 11
66.3886088820460998
 21
-15.0461415672314303
 31
0.0
  0
LINE
  5
3A5
  8
OUTLINE
 10
65.2621357159073341
 20
-14.7961415672314196
 30
0.0
 11
67.9578091378018598
 21
-14.7961415672314196
 31
0.0
  0
LINE
  5
3A6
  8
OUTLINE
 10
66.3886088820460998
 20
-8.5461415672314267
 30
0.0
 11
66.3886088820460998
 21
-9.0461415672314267
 31
0.0
  0
LINE
  5
3A7
  8
OUTLINE
 10
65.2621357159073341
 20
-8.7961415672314267
 30
0.0
 11
67.9578091378018598
 21
-8.7961415672314267
 31
0.0
  0
ENDBLK
  5
39D
  8
0
  0
BLOCK
  8
0
  2
*U2
 70
     1
 10
0.0
 20
0.0
 30
0.0
  3
*U2
  1

  0
TEXT
  5
7F8
  8
OUTLINE
 10
3.3950425172613978
 20
-31.8554576250467782
 30
0.0
 40
1.2
  1
Piezas
  0
TEXT
  5
7F9
  8
OUTLINE
 10
3.3868569783800888
 20
-33.8554576250467818
 30
0.0
 40
1.2
  1
Finales
  0
ENDBLK
  5
7FB
  8
0
  0
ENDSEC
  0
SECTION
  2
ENTITIES
  0
LINE
  5
1FE
  8
0
 10
2.345062075659782
 20
6.6725750188126076
 30
0.0
 11
17.3450620756597793
 21
6.6725750188126076
 31
0.0
  0
LINE
  5
1FF
  8
0
 10
17.3450620756597793
 20
6.6725750188126076
 30
0.0
 11
17.3450620756597793
 21
5.6725750188126076
 31
0.0
  0
LINE
  5
200
  8
0
 10
17.3450620756597793
 20
5.6725750188126076
 30
0.0
 11
2.345062075659782
 21
5.6725750188126094
 31
0.0
  0
LINE
  5
201
  8
0
 10
2.345062075659782
 20
5.6725750188126094
 30
0.0
 11
2.345062075659782
 21
6.6725750188126076
 31
0.0
  0
LINE
  5
202
  8
0
 10
9.8450620756597829
 20
6.6725750188126076
 30
0.0
 11
9.8450620756597829
 21
5.6725750188126076
 31
0.0
  0
LINE
  5
203
  8
0
 10
3.845062075659782
 20
6.6725750188126076
 30
0.0
 11
3.845062075659782
 21
5.6725750188126076
 31
0.0
  0
LINE
  5
205
  8
0
 10
15.8450620756597793
 20
6.6725750188126076
 30
0.0
 11
15.8450620756597793
 21
5.6725750188126076
 31
0.0
  0
POLYLINE
  5
20A
  8
0
 66
     1
 10
0.0
 20
0.0
 30
0.0
 70
     1
  0
VERTEX
  5
52D
  8
0
 10
17.3450620756597793
 20
14.4730841696472403
 30
0.0
  0
VERTEX
  5
52E
  8
0
 10
17.3450620756597793
 20
14.1730841696472396
 30
0.0
  0
VERTEX
  5
52F
  8
0
 10
2.345062075659782
 20
14.1730841696472396
 30
0.0
  0
VERTEX
  5
530
  8
0
 10
2.345062075659782
 20
14.4730841696472403
 30
0.0
  0
SEQEND
  5
531
  8
0
  0
LINE
  5
211
  8
0
 10
2.345062075659782
 20
22.2393294283435807
 30
0.0
 11
2.345062075659782
 21
-11.9133646001046802
 31
0.0
  0
LINE
  5
212
  8
0
 10
3.845062075659782
 20
22.2393294283435807
 30
0.0
 11
3.845062075659782
 21
-11.9133646001046802
 31
0.0
  0
LINE
  5
213
  8
0
 10
9.8450620756597829
 20
22.2393294283435807
 30
0.0
 11
9.8450620756597829
 21
-11.9133646001046802
 31
0.0
  0
LINE
  5
214
  8
0
 10
15.8450620756597793
 20
22.2393294283435807
 30
0.0
 11
15.8450620756597793
 21
-11.9133646001046802
 31
0.0
  0
POLYLINE
  5
215
  8
0
 66
     1
 10
0.0
 20
0.0
 30
0.0
 70
     1
  0
VERTEX
  5
532
  8
0
 10
3.595062075659782
 20
6.6725750188126076
 30
0.0
  0
VERTEX
  5
533
  8
0
 10
4.095062075659782
 20
6.6725750188126076
 30
0.0
  0
VERTEX
  5
534
  8
0
 10
4.095062075659782
 20
6.1725750188126076
 30
0.0
  0
VERTEX
  5
535
  8
0
 10
3.595062075659782
 20
6.1725750188126076
 30
0.0
  0
SEQEND
  5
536
  8
0
  0
POLYLINE
  5
216
  8
0
 66
     1
 10
0.0
 20
0.0
 30
0.0
 70
     1
  0
VERTEX
  5
537
  8
0
 10
9.5950620756597829
 20
6.1725750188126076
 30
0.0
  0
VERTEX
  5
538
  8
0
 10
10.0950620756597793
 20
6.1725750188126076
 30
0.0
  0
VERTEX
  5
539
  8
0
 10
10.0950620756597793
 20
5.6725750188126076
 30
0.0
  0
VERTEX
  5
53A
  8
0
 10
9.5950620756597829
 20
5.6725750188126076
 30
0.0
  0
SEQEND
  5
53B
  8
0
  0
POLYLINE
  5
217
  8
0
 66
     1
 10
0.0
 20
0.0
 30
0.0
 70
     1
  0
VERTEX
  5
53C
  8
0
 10
15.5950620756597793
 20
6.6725750188126076
 30
0.0
  0
VERTEX
  5
53D
  8
0
 10
16.0950620756597793
 20
6.6725750188126076
 30
0.0
  0
VERTEX
  5
53E
  8
0
 10
16.0950620756597793
 20
6.1725750188126076
 30
0.0
  0
VERTEX
  5
53F
  8
0
 10
15.5950620756597793
 20
6.1725750188126076
 30
0.0
  0
SEQEND
  5
540
  8
0
  0
POLYLINE
  5
218
  8
0
 66
     1
 10
0.0
 20
0.0
 30
0.0
 70
     1
  0
VERTEX
  5
541
  8
0
 10
-1.683995911538771
 20
6.6128433125430766
 30
0.0
  0
VERTEX
  5
542
  8
0
 10
-1.683995911538769
 20
16.6128433125430703
 30
0.0
  0
VERTEX
  5
543
  8
0
 10
-1.983995911538768
 20
16.6128433125430703
 30
0.0
  0
VERTEX
  5
544
  8
0
 10
-1.9839959115387711
 20
6.6128433125430766
 30
0.0
  0
SEQEND
  5
545
  8
0
  0
LINE
  5
21A
  8
0
 10
3.5950620756597829
 20
14.1730841696472396
 30
0.0
 11
3.5950620756597829
 21
14.4730841696472403
 31
0.0
  0
LINE
  5
21B
  8
0
 10
4.0950620756597829
 20
14.1730841696472396
 30
0.0
 11
4.0950620756597829
 21
14.4730841696472403
 31
0.0
  0
LINE
  5
21C
  8
0
 10
9.5950620756597829
 20
14.1730841696472396
 30
0.0
 11
9.5950620756597829
 21
14.4730841696472403
 31
0.0
  0
LINE
  5
21D
  8
0
 10
10.0950620756597793
 20
14.1730841696472396
 30
0.0
 11
10.0950620756597793
 21
14.4730841696472403
 31
0.0
  0
LINE
  5
21E
  8
0
 10
15.5950620756597793
 20
14.1730841696472396
 30
0.0
 11
15.5950620756597793
 21
14.4730841696472403
 31
0.0
  0
LINE
  5
21F
  8
0
 10
16.0950620756597793
 20
14.1730841696472396
 30
0.0
 11
16.0950620756597793
 21
14.4730841696472403
 31
0.0
  0
LINE
  5
220
  8
0
 10
2.3450620756597811
 20
2.5766820895852329
 30
0.0
 11
23.3450620756597793
 21
2.5766820895852329
 31
0.0
  0
LINE
  5
221
  8
0
 10
23.3450620756597793
 20
2.5766820895852329
 30
0.0
 11
23.3450620756597793
 21
1.5766820895852329
 31
0.0
  0
LINE
  5
222
  8
0
 10
23.3450620756597793
 20
1.576682089585232
 30
0.0
 11
2.3450620756597811
 21
1.576682089585234
 31
0.0
  0
LINE
  5
223
  8
0
 10
2.3450620756597811
 20
1.576682089585234
 30
0.0
 11
2.3450620756597811
 21
2.5766820895852329
 31
0.0
  0
LINE
  5
224
  8
0
 10
9.8450620756597829
 20
2.5766820895852329
 30
0.0
 11
9.8450620756597829
 21
1.5766820895852329
 31
0.0
  0
LINE
  5
225
  8
0
 10
21.8450620756597793
 20
2.5766820895852329
 30
0.0
 11
21.8450620756597793
 21
1.5766820895852329
 31
0.0
  0
LINE
  5
226
  8
0
 10
3.8450620756597811
 20
2.5766820895852329
 30
0.0
 11
3.8450620756597811
 21
1.5766820895852329
 31
0.0
  0
POLYLINE
  5
227
  8
0
 66
     1
 10
0.0
 20
0.0
 30
0.0
 70
     1
  0
VERTEX
  5
546
  8
0
 10
3.5950620756597811
 20
2.5766820895852329
 30
0.0
  0
VERTEX
  5
547
  8
0
 10
4.0950620756597811
 20
2.5766820895852329
 30
0.0
  0
VERTEX
  5
548
  8
0
 10
4.0950620756597811
 20
2.0766820895852329
 30
0.0
  0
VERTEX
  5
549
  8
0
 10
3.5950620756597811
 20
2.0766820895852329
 30
0.0
  0
SEQEND
  5
54A
  8
0
  0
POLYLINE
  5
228
  8
0
 66
     1
 10
0.0
 20
0.0
 30
0.0
 70
     1
  0
VERTEX
  5
54B
  8
0
 10
9.5950620756597829
 20
2.0766820895852329
 30
0.0
  0
VERTEX
  5
54C
  8
0
 10
10.0950620756597793
 20
2.0766820895852329
 30
0.0
  0
VERTEX
  5
54D
  8
0
 10
10.0950620756597793
 20
1.5766820895852329
 30
0.0
  0
VERTEX
  5
54E
  8
0
 10
9.5950620756597829
 20
1.5766820895852329
 30
0.0
  0
SEQEND
  5
54F
  8
0
  0
POLYLINE
  5
22A
  8
0
 66
     1
 10
0.0
 20
0.0
 30
0.0
 70
     1
  0
VERTEX
  5
550
  8
0
 10
15.5450620756597804
 20
2.0766820895852329
 30
0.0
  0
VERTEX
  5
551
  8
0
 10
16.14506207565978
 20
2.0766820895852329
 30
0.0
  0
VERTEX
  5
552
  8
0
 10
16.14506207565978
 20
1.5766820895852329
 30
0.0
  0
VERTEX
  5
553
  8
0
 10
15.5450620756597804
 20
1.5766820895852329
 30
0.0
  0
SEQEND
  5
554
  8
0
  0
POLYLINE
  5
22B
  8
0
 66
     1
 10
0.0
 20
0.0
 30
0.0
 70
     1
  0
VERTEX
  5
555
  8
0
 10
38.3309174912650406
 20
7.911549823549648
 30
0.0
  0
VERTEX
  5
556
  8
0
 10
38.3309174912650406
 20
22.9115498235496489
 30
0.0
  0
VERTEX
  5
557
  8
0
 10
38.0309174912650505
 20
22.9115498235496489
 30
0.0
  0
VERTEX
  5
558
  8
0
 10
38.0309174912650505
 20
7.911549823549648
 30
0.0
  0
SEQEND
  5
559
  8
0
  0
POLYLINE
  5
22D
  8
0
 66
     1
 10
0.0
 20
0.0
 30
0.0
 70
     1
  0
VERTEX
  5
55A
  8
0
 10
40.3309174912650406
 20
7.911549823549648
 30
0.0
  0
VERTEX
  5
55B
  8
0
 10
40.3309174912650406
 20
22.9115498235496489
 30
0.0
  0
VERTEX
  5
55C
  8
0
 10
40.0309174912650434
 20
22.9115498235496489
 30
0.0
  0
VERTEX
  5
55D
  8
0
 10
40.0309174912650434
 20
7.911549823549648
 30
0.0
  0
SEQEND
  5
55E
  8
0
  0
POLYLINE
  5
22E
  8
0
 66
     1
 10
0.0
 20
0.0
 30
0.0
 70
     1
  0
VERTEX
  5
55F
  8
0
 10
36.3309174912650406
 20
7.911549823549648
 30
0.0
  0
VERTEX
  5
560
  8
0
 10
36.3309174912650406
 20
22.9115498235496489
 30
0.0
  0
VERTEX
  5
561
  8
0
 10
36.0309174912650434
 20
22.9115498235496489
 30
0.0
  0
VERTEX
  5
562
  8
0
 10
36.0309174912650434
 20
7.911549823549648
 30
0.0
  0
SEQEND
  5
563
  8
0
  0
LINE
  5
22F
  8
0
 10
51.0497953008727166
 20
-8.9233179104147666
 30
0.0
 11
51.0497953008727166
 21
12.0766820895852298
 31
0.0
  0
LINE
  5
230
  8
0
 10
51.0497953008727166
 20
12.0766820895852298
 30
0.0
 11
51.3497953008727208
 21
12.0766820895852298
 31
0.0
  0
LINE
  5
231
  8
0
 10
51.3497953008727208
 20
12.0766820895852298
 30
0.0
 11
51.3497953008727066
 21
-8.9233179104147666
 31
0.0
  0
LINE
  5
232
  8
0
 10
51.3497953008727066
 20
-8.9233179104147666
 30
0.0
 11
51.0497953008727166
 21
-8.9233179104147666
 31
0.0
  0
POLYLINE
  5
236
  8
0
 66
     1
 10
0.0
 20
0.0
 30
0.0
  0
VERTEX
  5
564
  8
0
 10
51.0497953008727166
 20
-7.1733179104147657
 30
0.0
  0
VERTEX
  5
565
  8
0
 10
51.3497953008727208
 20
-7.1733179104147657
 30
0.0
  0
VERTEX
  5
566
  8
0
 10
51.3497953008727208
 20
-7.6733179104147657
 30
0.0
  0
VERTEX
  5
567
  8
0
 10
51.0497953008727166
 20
-7.6733179104147657
 30
0.0
  0
SEQEND
  5
568
  8
0
  0
POLYLINE
  5
237
  8
0
 66
     1
 10
0.0
 20
0.0
 30
0.0
  0
VERTEX
  5
569
  8
0
 10
51.0497953008727166
 20
-1.173317910414766
 30
0.0
  0
VERTEX
  5
56A
  8
0
 10
51.3497953008727066
 20
-1.173317910414766
 30
0.0
  0
VERTEX
  5
56B
  8
0
 10
51.3497953008727066
 20
-1.673317910414766
 30
0.0
  0
VERTEX
  5
56C
  8
0
 10
51.0497953008727166
 20
-1.673317910414766
 30
0.0
  0
SEQEND
  5
56D
  8
0
  0
POLYLINE
  5
238
  8
0
 66
     1
 10
0.0
 20
0.0
 30
0.0
  0
VERTEX
  5
56E
  8
0
 10
51.0497953008727166
 20
10.8266820895852298
 30
0.0
  0
VERTEX
  5
56F
  8
0
 10
51.3497953008727208
 20
10.8266820895852298
 30
0.0
  0
VERTEX
  5
570
  8
0
 10
51.3497953008727208
 20
10.3266820895852298
 30
0.0
  0
VERTEX
  5
571
  8
0
 10
51.0497953008727166
 20
10.3266820895852298
 30
0.0
  0
SEQEND
  5
572
  8
0
  0
POLYLINE
  5
239
  8
0
 66
     1
 10
0.0
 20
0.0
 30
0.0
  0
VERTEX
  5
573
  8
0
 10
51.0497953008727166
 20
4.8266820895852334
 30
0.0
  0
VERTEX
  5
574
  8
0
 10
51.3497953008727066
 20
4.8266820895852334
 30
0.0
  0
VERTEX
  5
575
  8
0
 10
51.3497953008727066
 20
4.3266820895852334
 30
0.0
  0
VERTEX
  5
576
  8
0
 10
51.0497953008727166
 20
4.3266820895852334
 30
0.0
  0
SEQEND
  5
577
  8
0
  0
LINE
  5
23A
  8
0
 10
87.3180675278985632
 20
-25.4758972018538508
 30
0.0
 11
87.3180675278985632
 21
-10.4758972018538508
 31
0.0
  0
LINE
  5
23B
  8
0
 10
87.3180675278985632
 20
-10.4758972018538508
 30
0.0
 11
87.6180675278985746
 21
-10.4758972018538508
 31
0.0
  0
LINE
  5
23C
  8
0
 10
87.6180675278985746
 20
-10.4758972018538508
 30
0.0
 11
87.6180675278985746
 21
-25.4758972018538508
 31
0.0
  0
LINE
  5
23D
  8
0
 10
87.6180675278985746
 20
-25.4758972018538508
 30
0.0
 11
87.3180675278985632
 21
-25.4758972018538508
 31
0.0
  0
POLYLINE
  5
241
  8
0
 66
     1
 10
0.0
 20
0.0
 30
0.0
  0
VERTEX
  5
578
  8
0
 10
87.3180675278985632
 20
-23.7258972018538614
 30
0.0
  0
VERTEX
  5
579
  8
0
 10
87.6180675278985746
 20
-23.7258972018538614
 30
0.0
  0
VERTEX
  5
57A
  8
0
 10
87.6180675278985746
 20
-24.2258972018538508
 30
0.0
  0
VERTEX
  5
57B
  8
0
 10
87.3180675278985632
 20
-24.2258972018538508
 30
0.0
  0
SEQEND
  5
57C
  8
0
  0
POLYLINE
  5
242
  8
0
 66
     1
 10
0.0
 20
0.0
 30
0.0
  0
VERTEX
  5
57D
  8
0
 10
87.3180675278985632
 20
-17.7258972018538508
 30
0.0
  0
VERTEX
  5
57E
  8
0
 10
87.6180675278985746
 20
-17.7258972018538508
 30
0.0
  0
VERTEX
  5
57F
  8
0
 10
87.6180675278985746
 20
-18.2258972018538508
 30
0.0
  0
VERTEX
  5
580
  8
0
 10
87.3180675278985632
 20
-18.2258972018538508
 30
0.0
  0
SEQEND
  5
581
  8
0
  0
POLYLINE
  5
243
  8
0
 66
     1
 10
0.0
 20
0.0
 30
0.0
  0
VERTEX
  5
582
  8
0
 10
87.3180675278985632
 20
-11.7258972018538508
 30
0.0
  0
VERTEX
  5
583
  8
0
 10
87.6180675278985746
 20
-11.7258972018538508
 30
0.0
  0
VERTEX
  5
584
  8
0
 10
87.6180675278985746
 20
-12.2258972018538508
 30
0.0
  0
VERTEX
  5
585
  8
0
 10
87.3180675278985632
 20
-12.2258972018538508
 30
0.0
  0
SEQEND
  5
586
  8
0
  0
LINE
  5
247
  8
OUTLINE
 10
51.1997953008727222
 20
10.8266820895852298
 30
0.0
 11
51.1997953008727222
 21
10.3266820895852298
 31
0.0
  0
LINE
  5
248
  8
OUTLINE
 10
46.151462873605702
 20
10.5766820895852298
 30
0.0
 11
54.3680782118090065
 21
10.5766820895852298
 31
0.0
  0
POLYLINE
  5
24A
  8
0
 66
     1
 10
0.0
 20
0.0
 30
0.0
 70
     1
  0
VERTEX
  5
587
  8
0
 10
73.286762090286544
 20
5.0627739639239371
 30
0.0
  0
VERTEX
  5
588
  8
0
 10
79.0270135757629362
 20
18.9209669515932113
 30
0.0
  0
VERTEX
  5
589
  8
0
 10
78.7498497160095496
 20
19.0357719813027408
 30
0.0
  0
VERTEX
  5
58A
  8
0
 10
73.0095982305331432
 20
5.1775789936334604
 30
0.0
  0
SEQEND
  5
58B
  8
0
  0
POLYLINE
  5
24B
  8
OUTLINE
 66
     1
 10
0.0
 20
0.0
 30
0.0
 70
     1
  0
VERTEX
  5
58C
  8
OUTLINE
 10
82.2912625415611956
 20
14.4205129313385498
 30
0.0
  0
VERTEX
  5
58D
  8
OUTLINE
 10
78.7498497160095496
 20
19.0357719813027408
 30
0.0
  0
VERTEX
  5
58E
  8
OUTLINE
 10
76.5236245464703444
 20
13.6611889841048804
 30
0.0
  0
SEQEND
  5
58F
  8
OUTLINE
  0
POLYLINE
  5
24F
  8
0
 66
     1
 10
0.0
 20
0.0
 30
0.0
 70
     1
  0
VERTEX
  5
590
  8
0
 10
82.2912625415611956
 20
14.4205129313385498
 30
0.0
  0
VERTEX
  5
591
  8
0
 10
73.1598411064304202
 20
26.3208130357071184
 30
0.0
  0
VERTEX
  5
592
  8
0
 10
72.9218351043430459
 20
26.1381846070044901
 30
0.0
  0
VERTEX
  5
593
  8
0
 10
82.0532565394738356
 20
14.23788450263595
 30
0.0
  0
SEQEND
  5
594
  8
0
  0
POLYLINE
  5
250
  8
0
 66
     1
 10
0.0
 20
0.0
 30
0.0
 70
     1
  0
VERTEX
  5
595
  8
0
 10
91.3561396094115139
 20
15.9165153258178105
 30
0.0
  0
VERTEX
  5
596
  8
0
 10
76.4844666888043321
 20
13.9586224425170506
 30
0.0
  0
VERTEX
  5
597
  8
0
 10
76.5236245464703444
 20
13.6611889841049106
 30
0.0
  0
VERTEX
  5
598
  8
0
 10
91.395297467077512
 20
15.6190818674056704
 30
0.0
  0
SEQEND
  5
599
  8
0
  0
POLYLINE
  5
251
  8
0
 66
     1
 10
0.0
 20
0.0
 30
0.0
 70
     1
  0
VERTEX
  5
59A
  8
0
 10
88.8742558465130514
 20
19.18313411424813
 30
0.0
  0
VERTEX
  5
59B
  8
0
 10
94.6145073319894436
 20
33.0413271019174104
 30
0.0
  0
VERTEX
  5
59C
  8
0
 10
94.3373434722360571
 20
33.15613213162694
 30
0.0
  0
VERTEX
  5
59D
  8
0
 10
88.5970919867596649
 20
19.2979391439576489
 30
0.0
  0
SEQEND
  5
59E
  8
0
  0
POLYLINE
  5
252
  8
0
 66
     1
 10
0.0
 20
0.0
 30
0.0
 70
     1
  0
VERTEX
  5
59F
  8
0
 10
106.9436333656379929
 20
30.0368754761420007
 30
0.0
  0
VERTEX
  5
5A0
  8
0
 10
92.0719604450308253
 20
28.0789825928412391
 30
0.0
  0
VERTEX
  5
5A1
  8
0
 10
92.1111183026968661
 20
27.781549134429099
 30
0.0
  0
VERTEX
  5
5A2
  8
0
 10
106.9827912233040053
 20
29.7394420177298606
 30
0.0
  0
SEQEND
  5
5A3
  8
0
  0
LINE
  5
253
  8
OUTLINE
 10
90.3654210051116138
 20
28.5046406308869997
 30
0.0
 11
95.3057689870081788
 21
26.4582814939428701
 31
0.0
  0
LINE
  5
254
  8
OUTLINE
 10
90.6348054749092
 20
28.9554854153909211
 30
0.0
 11
95.5046171314295123
 21
26.9383433810576101
 31
0.0
  0
POLYLINE
  5
257
  8
0
 66
     1
 10
0.0
 20
0.0
 30
0.0
 70
     1
  0
VERTEX
  5
5A4
  8
0
 10
21.5450620756597786
 20
2.5766820895852329
 30
0.0
  0
VERTEX
  5
5A5
  8
0
 10
22.14506207565978
 20
2.5766820895852329
 30
0.0
  0
VERTEX
  5
5A6
  8
0
 10
22.14506207565978
 20
2.0766820895852329
 30
0.0
  0
VERTEX
  5
5A7
  8
0
 10
21.5450620756597786
 20
2.0766820895852329
 30
0.0
  0
SEQEND
  5
5A8
  8
0
  0
POLYLINE
  5
258
  8
0
 66
     1
 10
0.0
 20
0.0
 30
0.0
 70
     1
  0
VERTEX
  5
5A9
  8
0
 10
92.7681401007083934
 20
-3.3186416642355421
 30
0.0
  0
VERTEX
  5
5AA
  8
0
 10
98.6885631679463415
 20
10.9745239996767108
 30
0.0
  0
VERTEX
  5
5AB
  8
0
 10
98.4026998546681142
 20
11.0929324610214692
 30
0.0
  0
VERTEX
  5
5AC
  8
0
 10
92.4822767874301519
 20
-3.2002332028907849
 30
0.0
  0
SEQEND
  5
5AD
  8
0
  0
POLYLINE
  5
259
  8
OUTLINE
 66
     1
 10
0.0
 20
0.0
 30
0.0
 70
     1
  0
VERTEX
  5
5AE
  8
OUTLINE
 10
102.0552684287203959
 20
6.3328124192740196
 30
0.0
  0
VERTEX
  5
5AF
  8
OUTLINE
 10
98.4026998546681142
 20
11.0929324610214692
 30
0.0
  0
VERTEX
  5
5B0
  8
OUTLINE
 10
96.1065992604775374
 20
5.5496552659537102
 30
0.0
  0
SEQEND
  5
5B1
  8
OUTLINE
  0
POLYLINE
  5
25A
  8
0
 66
     1
 10
0.0
 20
0.0
 30
0.0
 70
     1
  0
VERTEX
  5
5B2
  8
0
 10
102.0552684287203959
 20
6.3328124192740196
 30
0.0
  0
VERTEX
  5
5B3
  8
0
 10
92.6372353968919526
 20
18.6066320286095888
 30
0.0
  0
VERTEX
  5
5B4
  8
0
 10
92.3917590047052215
 20
18.4182713679730199
 30
0.0
  0
VERTEX
  5
5B5
  8
0
 10
101.8097920365336932
 20
6.144451758637465
 30
0.0
  0
SEQEND
  5
5B6
  8
0
  0
POLYLINE
  5
25B
  8
0
 66
     1
 10
0.0
 20
0.0
 30
0.0
 70
     1
  0
VERTEX
  5
5B7
  8
0
 10
111.4046684384525037
 20
7.8757704425117723
 30
0.0
  0
VERTEX
  5
5B8
  8
0
 10
96.0662123393859986
 20
5.8564243879350713
 30
0.0
  0
VERTEX
  5
5B9
  8
0
 10
96.1065992604775374
 20
5.5496552659537377
 30
0.0
  0
VERTEX
  5
5BA
  8
0
 10
111.4450553595439999
 20
7.5690013205304458
 30
0.0
  0
SEQEND
  5
5BB
  8
0
  0
LINE
  5
25C
  8
0
 10
3.1178342656170979
 20
-35.9584104823778787
 30
0.0
 11
24.1178342656170983
 21
-35.9584104823778787
 31
0.0
  0
LINE
  5
268
  8
0
 10
3.1178342656170979
 20
-36.9584104823778787
 30
0.0
 11
24.1178342656170983
 21
-36.9584104823778787
 31
0.0
  0
LINE
  5
270
  8
0
 10
3.1178342656170979
 20
-37.9584104823778787
 30
0.0
 11
24.1178342656170983
 21
-37.9584104823778787
 31
0.0
  0
LINE
  5
278
  8
0
 10
3.1178342656170979
 20
-38.9584104823778787
 30
0.0
 11
24.1178342656170983
 21
-38.9584104823778787
 31
0.0
  0
LINE
  5
27A
  8
0
 10
24.1178342656170983
 20
-39.9584104823778787
 30
0.0
 11
3.1178342656170979
 21
-39.9584104823778787
 31
0.0
  0
LINE
  5
281
  8
0
 10
24.1178342656170983
 20
-35.9584104823778787
 30
0.0
 11
24.1178342656170983
 21
-40.9584104823778787
 31
0.0
  0
LINE
  5
282
  8
0
 10
24.1178342656170983
 20
-40.9584104823778787
 30
0.0
 11
3.1178342656170979
 21
-40.9584104823778787
 31
0.0
  0
LINE
  5
283
  8
0
 10
3.1178342656170979
 20
-40.9584104823778787
 30
0.0
 11
3.1178342656170979
 21
-35.9584104823778787
 31
0.0
  0
LINE
  5
289
  8
0
 10
22.917834265617099
 20
-39.9584104823778787
 30
0.0
 11
22.917834265617099
 21
-40.4584104823778787
 31
0.0
  0
LINE
  5
28A
  8
0
 10
22.917834265617099
 20
-40.4584104823778787
 30
0.0
 11
22.3178342656171012
 21
-40.4584104823778787
 31
0.0
  0
LINE
  5
28B
  8
0
 10
22.3178342656171012
 20
-40.4584104823778787
 30
0.0
 11
22.3178342656171012
 21
-39.9584104823778787
 31
0.0
  0
LINE
  5
28C
  8
0
 10
16.3178342656171012
 20
-40.4584104823778787
 30
0.0
 11
16.9178342656170884
 21
-40.4584104823778787
 31
0.0
  0
LINE
  5
28D
  8
0
 10
16.9178342656170884
 20
-40.4584104823778787
 30
0.0
 11
16.9178342656170884
 21
-40.9584104823778787
 31
0.0
  0
LINE
  5
28F
  8
0
 10
16.3178342656171012
 20
-40.9584104823778787
 30
0.0
 11
16.3178342656171012
 21
-40.4584104823778787
 31
0.0
  0
LINE
  5
290
  8
0
 10
10.3678342656171001
 20
-40.4584104823778787
 30
0.0
 11
10.8678342656171001
 21
-40.4584104823778787
 31
0.0
  0
LINE
  5
291
  8
0
 10
10.8678342656171001
 20
-40.4584104823778787
 30
0.0
 11
10.8678342656171001
 21
-40.9584104823778787
 31
0.0
  0
LINE
  5
293
  8
0
 10
10.3678342656171001
 20
-40.9584104823778787
 30
0.0
 11
10.3678342656171001
 21
-40.4584104823778787
 31
0.0
  0
LINE
  5
295
  8
0
 10
4.8678342656170983
 20
-39.9584104823778787
 30
0.0
 11
4.8678342656170983
 21
-40.4584104823778787
 31
0.0
  0
LINE
  5
296
  8
0
 10
4.8678342656170983
 20
-40.4584104823778787
 30
0.0
 11
4.3678342656170983
 21
-40.4584104823778787
 31
0.0
  0
LINE
  5
297
  8
0
 10
4.3678342656170983
 20
-40.4584104823778787
 30
0.0
 11
4.3678342656170983
 21
-39.9584104823778787
 31
0.0
  0
LINE
  5
299
  8
0
 10
22.917834265617099
 20
-38.9584104823778787
 30
0.0
 11
22.917834265617099
 21
-39.4584104823778787
 31
0.0
  0
LINE
  5
29A
  8
0
 10
22.917834265617099
 20
-39.4584104823778787
 30
0.0
 11
22.3178342656171012
 21
-39.4584104823778787
 31
0.0
  0
LINE
  5
29B
  8
0
 10
22.3178342656171012
 20
-39.4584104823778787
 30
0.0
 11
22.3178342656171012
 21
-38.9584104823778787
 31
0.0
  0
LINE
  5
29C
  8
0
 10
16.3178342656171012
 20
-39.4584104823778787
 30
0.0
 11
16.9178342656170884
 21
-39.4584104823778787
 31
0.0
  0
LINE
  5
29D
  8
0
 10
16.9178342656170884
 20
-39.4584104823778787
 30
0.0
 11
16.9178342656170884
 21
-39.9584104823778787
 31
0.0
  0
LINE
  5
29F
  8
0
 10
16.3178342656171012
 20
-39.9584104823778787
 30
0.0
 11
16.3178342656171012
 21
-39.4584104823778787
 31
0.0
  0
LINE
  5
2A0
  8
0
 10
10.3678342656171001
 20
-39.4584104823778787
 30
0.0
 11
10.8678342656171001
 21
-39.4584104823778787
 31
0.0
  0
LINE
  5
2A1
  8
0
 10
10.8678342656171001
 20
-39.4584104823778787
 30
0.0
 11
10.8678342656171001
 21
-39.9584104823778787
 31
0.0
  0
LINE
  5
2A3
  8
0
 10
10.3678342656171001
 20
-39.9584104823778787
 30
0.0
 11
10.3678342656171001
 21
-39.4584104823778787
 31
0.0
  0
LINE
  5
2A5
  8
0
 10
4.8678342656170983
 20
-38.9584104823778787
 30
0.0
 11
4.8678342656170983
 21
-39.4584104823778787
 31
0.0
  0
LINE
  5
2A6
  8
0
 10
4.8678342656170983
 20
-39.4584104823778787
 30
0.0
 11
4.3678342656170983
 21
-39.4584104823778787
 31
0.0
  0
LINE
  5
2A7
  8
0
 10
4.3678342656170983
 20
-39.4584104823778787
 30
0.0
 11
4.3678342656170983
 21
-38.9584104823778787
 31
0.0
  0
LINE
  5
2A9
  8
0
 10
22.917834265617099
 20
-37.9584104823778787
 30
0.0
 11
22.917834265617099
 21
-38.4584104823778787
 31
0.0
  0
LINE
  5
2AA
  8
0
 10
22.917834265617099
 20
-38.4584104823778787
 30
0.0
 11
22.3178342656171012
 21
-38.4584104823778787
 31
0.0
  0
LINE
  5
2AB
  8
0
 10
22.3178342656171012
 20
-38.4584104823778787
 30
0.0
 11
22.3178342656171012
 21
-37.9584104823778787
 31
0.0
  0
LINE
  5
2AC
  8
0
 10
16.3178342656171012
 20
-38.4584104823778787
 30
0.0
 11
16.9178342656170884
 21
-38.4584104823778787
 31
0.0
  0
LINE
  5
2AD
  8
0
 10
16.9178342656170884
 20
-38.4584104823778787
 30
0.0
 11
16.9178342656170884
 21
-38.9584104823778787
 31
0.0
  0
LINE
  5
2AF
  8
0
 10
16.3178342656171012
 20
-38.9584104823778787
 30
0.0
 11
16.3178342656171012
 21
-38.4584104823778787
 31
0.0
  0
LINE
  5
2B0
  8
0
 10
10.3678342656171001
 20
-38.4584104823778787
 30
0.0
 11
10.8678342656171001
 21
-38.4584104823778787
 31
0.0
  0
LINE
  5
2B1
  8
0
 10
10.8678342656171001
 20
-38.4584104823778787
 30
0.0
 11
10.8678342656171001
 21
-38.9584104823778787
 31
0.0
  0
LINE
  5
2B3
  8
0
 10
10.3678342656171001
 20
-38.9584104823778787
 30
0.0
 11
10.3678342656171001
 21
-38.4584104823778787
 31
0.0
  0
LINE
  5
2B5
  8
0
 10
4.8678342656170983
 20
-37.9584104823778787
 30
0.0
 11
4.8678342656170983
 21
-38.4584104823778787
 31
0.0
  0
LINE
  5
2B6
  8
0
 10
4.8678342656170983
 20
-38.4584104823778787
 30
0.0
 11
4.3678342656170983
 21
-38.4584104823778787
 31
0.0
  0
LINE
  5
2B7
  8
0
 10
4.3678342656170983
 20
-38.4584104823778787
 30
0.0
 11
4.3678342656170983
 21
-37.9584104823778787
 31
0.0
  0
LINE
  5
2B9
  8
0
 10
22.917834265617099
 20
-36.9584104823778787
 30
0.0
 11
22.917834265617099
 21
-37.4584104823778787
 31
0.0
  0
LINE
  5
2BA
  8
0
 10
22.917834265617099
 20
-37.4584104823778787
 30
0.0
 11
22.3178342656171012
 21
-37.4584104823778787
 31
0.0
  0
LINE
  5
2BB
  8
0
 10
22.3178342656171012
 20
-37.4584104823778787
 30
0.0
 11
22.3178342656171012
 21
-36.9584104823778787
 31
0.0
  0
LINE
  5
2BC
  8
0
 10
16.3178342656171012
 20
-37.4584104823778787
 30
0.0
 11
16.9178342656170884
 21
-37.4584104823778787
 31
0.0
  0
LINE
  5
2BD
  8
0
 10
16.9178342656170884
 20
-37.4584104823778787
 30
0.0
 11
16.9178342656170884
 21
-37.9584104823778787
 31
0.0
  0
LINE
  5
2BF
  8
0
 10
16.3178342656171012
 20
-37.9584104823778787
 30
0.0
 11
16.3178342656171012
 21
-37.4584104823778787
 31
0.0
  0
LINE
  5
2C0
  8
0
 10
10.3678342656171001
 20
-37.4584104823778787
 30
0.0
 11
10.8678342656171001
 21
-37.4584104823778787
 31
0.0
  0
LINE
  5
2C1
  8
0
 10
10.8678342656171001
 20
-37.4584104823778787
 30
0.0
 11
10.8678342656171001
 21
-37.9584104823778787
 31
0.0
  0
LINE
  5
2C3
  8
0
 10
10.3678342656171001
 20
-37.9584104823778787
 30
0.0
 11
10.3678342656171001
 21
-37.4584104823778787
 31
0.0
  0
LINE
  5
2C5
  8
0
 10
4.8678342656170983
 20
-36.9584104823778787
 30
0.0
 11
4.8678342656170983
 21
-37.4584104823778787
 31
0.0
  0
LINE
  5
2C6
  8
0
 10
4.8678342656170983
 20
-37.4584104823778787
 30
0.0
 11
4.3678342656170983
 21
-37.4584104823778787
 31
0.0
  0
LINE
  5
2C7
  8
0
 10
4.3678342656170983
 20
-37.4584104823778787
 30
0.0
 11
4.3678342656170983
 21
-36.9584104823778787
 31
0.0
  0
LINE
  5
2C9
  8
0
 10
22.917834265617099
 20
-35.9584104823778787
 30
0.0
 11
22.917834265617099
 21
-36.4584104823778787
 31
0.0
  0
LINE
  5
2CA
  8
0
 10
22.917834265617099
 20
-36.4584104823778787
 30
0.0
 11
22.3178342656171012
 21
-36.4584104823778787
 31
0.0
  0
LINE
  5
2CB
  8
0
 10
22.3178342656171012
 20
-36.4584104823778787
 30
0.0
 11
22.3178342656171012
 21
-35.9584104823778787
 31
0.0
  0
LINE
  5
2CC
  8
0
 10
16.3178342656171012
 20
-36.4584104823778787
 30
0.0
 11
16.9178342656170884
 21
-36.4584104823778787
 31
0.0
  0
LINE
  5
2CD
  8
0
 10
16.9178342656170884
 20
-36.4584104823778787
 30
0.0
 11
16.9178342656170884
 21
-36.9584104823778787
 31
0.0
  0
LINE
  5
2CF
  8
0
 10
16.3178342656171012
 20
-36.9584104823778787
 30
0.0
 11
16.3178342656171012
 21
-36.4584104823778787
 31
0.0
  0
LINE
  5
2D0
  8
0
 10
10.3678342656171001
 20
-36.4584104823778787
 30
0.0
 11
10.8678342656171001
 21
-36.4584104823778787
 31
0.0
  0
LINE
  5
2D1
  8
0
 10
10.8678342656171001
 20
-36.4584104823778787
 30
0.0
 11
10.8678342656171001
 21
-36.9584104823778787
 31
0.0
  0
LINE
  5
2D3
  8
0
 10
10.3678342656171001
 20
-36.9584104823778787
 30
0.0
 11
10.3678342656171001
 21
-36.4584104823778787
 31
0.0
  0
LINE
  5
2D5
  8
0
 10
4.8678342656170983
 20
-35.9584104823778787
 30
0.0
 11
4.8678342656170983
 21
-36.4584104823778787
 31
0.0
  0
LINE
  5
2D6
  8
0
 10
4.8678342656170983
 20
-36.4584104823778787
 30
0.0
 11
4.3678342656170983
 21
-36.4584104823778787
 31
0.0
  0
LINE
  5
2D7
  8
0
 10
4.3678342656170983
 20
-36.4584104823778787
 30
0.0
 11
4.3678342656170983
 21
-35.9584104823778787
 31
0.0
  0
LINE
  5
2D8
  8
0
 10
3.1178342656170979
 20
-55.9584104823778787
 30
0.0
 11
3.1178342656170979
 21
-40.9584104823778787
 31
0.0
  0
LINE
  5
2D9
  8
0
 10
3.1178342656170979
 20
-40.9584104823778787
 30
0.0
 11
4.1178342656170983
 21
-40.9584104823778787
 31
0.0
  0
LINE
  5
2DA
  8
0
 10
4.1178342656170983
 20
-40.9584104823778787
 30
0.0
 11
4.1178342656170983
 21
-55.9584104823778787
 31
0.0
  0
LINE
  5
2DB
  8
0
 10
4.1178342656170983
 20
-55.9584104823778787
 30
0.0
 11
3.1178342656170979
 21
-55.9584104823778787
 31
0.0
  0
POLYLINE
  5
2DF
  8
0
 66
     1
 10
0.0
 20
0.0
 30
0.0
 70
     1
  0
VERTEX
  5
5BC
  8
0
 10
3.1178342656170979
 20
-54.7084104823778787
 30
0.0
  0
VERTEX
  5
5BD
  8
0
 10
3.1178342656170979
 20
-54.2084104823778787
 30
0.0
  0
VERTEX
  5
5BE
  8
0
 10
3.6178342656170979
 20
-54.2084104823778787
 30
0.0
  0
VERTEX
  5
5BF
  8
0
 10
3.6178342656170979
 20
-54.7084104823778787
 30
0.0
  0
SEQEND
  5
5C0
  8
0
  0
POLYLINE
  5
2E0
  8
0
 66
     1
 10
0.0
 20
0.0
 30
0.0
 70
     1
  0
VERTEX
  5
5C1
  8
0
 10
3.6178342656170979
 20
-48.7084104823778787
 30
0.0
  0
VERTEX
  5
5C2
  8
0
 10
3.6178342656170979
 20
-48.2084104823778787
 30
0.0
  0
VERTEX
  5
5C3
  8
0
 10
4.1178342656170983
 20
-48.2084104823778787
 30
0.0
  0
VERTEX
  5
5C4
  8
0
 10
4.1178342656170983
 20
-48.7084104823778787
 30
0.0
  0
SEQEND
  5
5C5
  8
0
  0
POLYLINE
  5
2E1
  8
0
 66
     1
 10
0.0
 20
0.0
 30
0.0
 70
     1
  0
VERTEX
  5
5C6
  8
0
 10
3.1178342656170979
 20
-42.7084104823778716
 30
0.0
  0
VERTEX
  5
5C7
  8
0
 10
3.1178342656170979
 20
-42.2084104823778787
 30
0.0
  0
VERTEX
  5
5C8
  8
0
 10
3.6178342656170979
 20
-42.2084104823778787
 30
0.0
  0
VERTEX
  5
5C9
  8
0
 10
3.6178342656170979
 20
-42.7084104823778716
 30
0.0
  0
SEQEND
  5
5CA
  8
0
  0
LINE
  5
2E3
  8
0
 10
4.1178342656170983
 20
-55.9584104823778787
 30
0.0
 11
4.1178342656170983
 21
-40.9584104823778787
 31
0.0
  0
LINE
  5
2E4
  8
0
 10
4.1178342656170983
 20
-40.9584104823778787
 30
0.0
 11
5.1178342656170983
 21
-40.9584104823778787
 31
0.0
  0
LINE
  5
2E5
  8
0
 10
5.1178342656170983
 20
-40.9584104823778787
 30
0.0
 11
5.1178342656170983
 21
-55.9584104823778787
 31
0.0
  0
LINE
  5
2E6
  8
0
 10
5.1178342656170983
 20
-55.9584104823778787
 30
0.0
 11
4.1178342656170983
 21
-55.9584104823778787
 31
0.0
  0
POLYLINE
  5
2E7
  8
0
 66
     1
 10
0.0
 20
0.0
 30
0.0
 70
     1
  0
VERTEX
  5
5CB
  8
0
 10
4.1178342656170983
 20
-54.7084104823778787
 30
0.0
  0
VERTEX
  5
5CC
  8
0
 10
4.1178342656170983
 20
-54.2084104823778787
 30
0.0
  0
VERTEX
  5
5CD
  8
0
 10
4.6178342656170983
 20
-54.2084104823778787
 30
0.0
  0
VERTEX
  5
5CE
  8
0
 10
4.6178342656170983
 20
-54.7084104823778787
 30
0.0
  0
SEQEND
  5
5CF
  8
0
  0
POLYLINE
  5
2E8
  8
0
 66
     1
 10
0.0
 20
0.0
 30
0.0
 70
     1
  0
VERTEX
  5
5D0
  8
0
 10
4.6178342656170983
 20
-48.7084104823778787
 30
0.0
  0
VERTEX
  5
5D1
  8
0
 10
4.6178342656170983
 20
-48.2084104823778787
 30
0.0
  0
VERTEX
  5
5D2
  8
0
 10
5.1178342656170983
 20
-48.2084104823778787
 30
0.0
  0
VERTEX
  5
5D3
  8
0
 10
5.1178342656170983
 20
-48.7084104823778787
 30
0.0
  0
SEQEND
  5
5D4
  8
0
  0
POLYLINE
  5
2E9
  8
0
 66
     1
 10
0.0
 20
0.0
 30
0.0
 70
     1
  0
VERTEX
  5
5D5
  8
0
 10
4.1178342656170983
 20
-42.7084104823778716
 30
0.0
  0
VERTEX
  5
5D6
  8
0
 10
4.1178342656170983
 20
-42.2084104823778787
 30
0.0
  0
VERTEX
  5
5D7
  8
0
 10
4.6178342656170983
 20
-42.2084104823778787
 30
0.0
  0
VERTEX
  5
5D8
  8
0
 10
4.6178342656170983
 20
-42.7084104823778716
 30
0.0
  0
SEQEND
  5
5D9
  8
0
  0
LINE
  5
2EA
  8
0
 10
5.1178342656170983
 20
-55.9584104823778787
 30
0.0
 11
5.1178342656170983
 21
-40.9584104823778787
 31
0.0
  0
LINE
  5
2EB
  8
0
 10
5.1178342656170983
 20
-40.9584104823778787
 30
0.0
 11
6.1178342656170983
 21
-40.9584104823778787
 31
0.0
  0
LINE
  5
2EC
  8
0
 10
6.1178342656170983
 20
-40.9584104823778787
 30
0.0
 11
6.1178342656170983
 21
-55.9584104823778787
 31
0.0
  0
LINE
  5
2ED
  8
0
 10
6.1178342656170983
 20
-55.9584104823778787
 30
0.0
 11
5.1178342656170983
 21
-55.9584104823778787
 31
0.0
  0
POLYLINE
  5
2EE
  8
0
 66
     1
 10
0.0
 20
0.0
 30
0.0
 70
     1
  0
VERTEX
  5
5DA
  8
0
 10
5.1178342656170983
 20
-54.7084104823778787
 30
0.0
  0
VERTEX
  5
5DB
  8
0
 10
5.1178342656170983
 20
-54.2084104823778787
 30
0.0
  0
VERTEX
  5
5DC
  8
0
 10
5.6178342656170983
 20
-54.2084104823778787
 30
0.0
  0
VERTEX
  5
5DD
  8
0
 10
5.6178342656170983
 20
-54.7084104823778787
 30
0.0
  0
SEQEND
  5
5DE
  8
0
  0
POLYLINE
  5
2EF
  8
0
 66
     1
 10
0.0
 20
0.0
 30
0.0
 70
     1
  0
VERTEX
  5
5DF
  8
0
 10
5.6178342656170983
 20
-48.7084104823778787
 30
0.0
  0
VERTEX
  5
5E0
  8
0
 10
5.6178342656170983
 20
-48.2084104823778787
 30
0.0
  0
VERTEX
  5
5E1
  8
0
 10
6.1178342656170983
 20
-48.2084104823778787
 30
0.0
  0
VERTEX
  5
5E2
  8
0
 10
6.1178342656170983
 20
-48.7084104823778787
 30
0.0
  0
SEQEND
  5
5E3
  8
0
  0
POLYLINE
  5
2F0
  8
0
 66
     1
 10
0.0
 20
0.0
 30
0.0
 70
     1
  0
VERTEX
  5
5E4
  8
0
 10
5.1178342656170983
 20
-42.7084104823778716
 30
0.0
  0
VERTEX
  5
5E5
  8
0
 10
5.1178342656170983
 20
-42.2084104823778787
 30
0.0
  0
VERTEX
  5
5E6
  8
0
 10
5.6178342656170983
 20
-42.2084104823778787
 30
0.0
  0
VERTEX
  5
5E7
  8
0
 10
5.6178342656170983
 20
-42.7084104823778716
 30
0.0
  0
SEQEND
  5
5E8
  8
0
  0
LINE
  5
2F1
  8
0
 10
6.1178342656170983
 20
-55.9584104823778787
 30
0.0
 11
6.1178342656170983
 21
-40.9584104823778787
 31
0.0
  0
LINE
  5
2F2
  8
0
 10
6.1178342656170983
 20
-40.9584104823778787
 30
0.0
 11
7.1178342656170983
 21
-40.9584104823778787
 31
0.0
  0
LINE
  5
2F3
  8
0
 10
7.1178342656170983
 20
-40.9584104823778787
 30
0.0
 11
7.1178342656170983
 21
-55.9584104823778787
 31
0.0
  0
LINE
  5
2F4
  8
0
 10
7.1178342656170983
 20
-55.9584104823778787
 30
0.0
 11
6.1178342656170983
 21
-55.9584104823778787
 31
0.0
  0
POLYLINE
  5
2F5
  8
0
 66
     1
 10
0.0
 20
0.0
 30
0.0
 70
     1
  0
VERTEX
  5
5E9
  8
0
 10
6.1178342656170983
 20
-54.7084104823778787
 30
0.0
  0
VERTEX
  5
5EA
  8
0
 10
6.1178342656170983
 20
-54.2084104823778787
 30
0.0
  0
VERTEX
  5
5EB
  8
0
 10
6.6178342656170983
 20
-54.2084104823778787
 30
0.0
  0
VERTEX
  5
5EC
  8
0
 10
6.6178342656170983
 20
-54.7084104823778787
 30
0.0
  0
SEQEND
  5
5ED
  8
0
  0
POLYLINE
  5
2F6
  8
0
 66
     1
 10
0.0
 20
0.0
 30
0.0
 70
     1
  0
VERTEX
  5
5EE
  8
0
 10
6.6178342656170983
 20
-48.7084104823778787
 30
0.0
  0
VERTEX
  5
5EF
  8
0
 10
6.6178342656170983
 20
-48.2084104823778787
 30
0.0
  0
VERTEX
  5
5F0
  8
0
 10
7.1178342656170983
 20
-48.2084104823778787
 30
0.0
  0
VERTEX
  5
5F1
  8
0
 10
7.1178342656170983
 20
-48.7084104823778787
 30
0.0
  0
SEQEND
  5
5F2
  8
0
  0
POLYLINE
  5
2F7
  8
0
 66
     1
 10
0.0
 20
0.0
 30
0.0
 70
     1
  0
VERTEX
  5
5F3
  8
0
 10
6.1178342656170983
 20
-42.7084104823778716
 30
0.0
  0
VERTEX
  5
5F4
  8
0
 10
6.1178342656170983
 20
-42.2084104823778787
 30
0.0
  0
VERTEX
  5
5F5
  8
0
 10
6.6178342656170983
 20
-42.2084104823778787
 30
0.0
  0
VERTEX
  5
5F6
  8
0
 10
6.6178342656170983
 20
-42.7084104823778716
 30
0.0
  0
SEQEND
  5
5F7
  8
0
  0
LINE
  5
2F8
  8
0
 10
7.1178342656170983
 20
-55.9584104823778787
 30
0.0
 11
7.1178342656170983
 21
-40.9584104823778787
 31
0.0
  0
LINE
  5
2F9
  8
0
 10
7.1178342656170983
 20
-40.9584104823778787
 30
0.0
 11
8.1178342656170983
 21
-40.9584104823778787
 31
0.0
  0
LINE
  5
2FA
  8
0
 10
8.1178342656170983
 20
-40.9584104823778787
 30
0.0
 11
8.1178342656170983
 21
-55.9584104823778787
 31
0.0
  0
LINE
  5
2FB
  8
0
 10
8.1178342656170983
 20
-55.9584104823778787
 30
0.0
 11
7.1178342656170983
 21
-55.9584104823778787
 31
0.0
  0
POLYLINE
  5
2FC
  8
0
 66
     1
 10
0.0
 20
0.0
 30
0.0
 70
     1
  0
VERTEX
  5
5F8
  8
0
 10
7.1178342656170983
 20
-54.7084104823778787
 30
0.0
  0
VERTEX
  5
5F9
  8
0
 10
7.1178342656170983
 20
-54.2084104823778787
 30
0.0
  0
VERTEX
  5
5FA
  8
0
 10
7.6178342656170983
 20
-54.2084104823778787
 30
0.0
  0
VERTEX
  5
5FB
  8
0
 10
7.6178342656170983
 20
-54.7084104823778787
 30
0.0
  0
SEQEND
  5
5FC
  8
0
  0
POLYLINE
  5
2FD
  8
0
 66
     1
 10
0.0
 20
0.0
 30
0.0
 70
     1
  0
VERTEX
  5
5FD
  8
0
 10
7.6178342656170983
 20
-48.7084104823778787
 30
0.0
  0
VERTEX
  5
5FE
  8
0
 10
7.6178342656170983
 20
-48.2084104823778787
 30
0.0
  0
VERTEX
  5
5FF
  8
0
 10
8.1178342656170983
 20
-48.2084104823778787
 30
0.0
  0
VERTEX
  5
600
  8
0
 10
8.1178342656170983
 20
-48.7084104823778787
 30
0.0
  0
SEQEND
  5
601
  8
0
  0
POLYLINE
  5
2FE
  8
0
 66
     1
 10
0.0
 20
0.0
 30
0.0
 70
     1
  0
VERTEX
  5
602
  8
0
 10
7.1178342656170983
 20
-42.7084104823778716
 30
0.0
  0
VERTEX
  5
603
  8
0
 10
7.1178342656170983
 20
-42.2084104823778787
 30
0.0
  0
VERTEX
  5
604
  8
0
 10
7.6178342656170983
 20
-42.2084104823778787
 30
0.0
  0
VERTEX
  5
605
  8
0
 10
7.6178342656170983
 20
-42.7084104823778716
 30
0.0
  0
SEQEND
  5
606
  8
0
  0
LINE
  5
2FF
  8
0
 10
8.1178342656170983
 20
-55.9584104823778787
 30
0.0
 11
8.1178342656170983
 21
-40.9584104823778787
 31
0.0
  0
LINE
  5
300
  8
0
 10
8.1178342656170983
 20
-40.9584104823778787
 30
0.0
 11
9.1178342656170983
 21
-40.9584104823778787
 31
0.0
  0
LINE
  5
301
  8
0
 10
9.1178342656170983
 20
-40.9584104823778787
 30
0.0
 11
9.1178342656170983
 21
-55.9584104823778787
 31
0.0
  0
LINE
  5
302
  8
0
 10
9.1178342656170983
 20
-55.9584104823778787
 30
0.0
 11
8.1178342656170983
 21
-55.9584104823778787
 31
0.0
  0
POLYLINE
  5
303
  8
0
 66
     1
 10
0.0
 20
0.0
 30
0.0
 70
     1
  0
VERTEX
  5
607
  8
0
 10
8.1178342656170983
 20
-54.7084104823778787
 30
0.0
  0
VERTEX
  5
608
  8
0
 10
8.1178342656170983
 20
-54.2084104823778787
 30
0.0
  0
VERTEX
  5
609
  8
0
 10
8.6178342656170983
 20
-54.2084104823778787
 30
0.0
  0
VERTEX
  5
60A
  8
0
 10
8.6178342656170983
 20
-54.7084104823778787
 30
0.0
  0
SEQEND
  5
60B
  8
0
  0
POLYLINE
  5
304
  8
0
 66
     1
 10
0.0
 20
0.0
 30
0.0
 70
     1
  0
VERTEX
  5
60C
  8
0
 10
8.6178342656170983
 20
-48.7084104823778787
 30
0.0
  0
VERTEX
  5
60D
  8
0
 10
8.6178342656170983
 20
-48.2084104823778787
 30
0.0
  0
VERTEX
  5
60E
  8
0
 10
9.1178342656170983
 20
-48.2084104823778787
 30
0.0
  0
VERTEX
  5
60F
  8
0
 10
9.1178342656170983
 20
-48.7084104823778787
 30
0.0
  0
SEQEND
  5
610
  8
0
  0
POLYLINE
  5
305
  8
0
 66
     1
 10
0.0
 20
0.0
 30
0.0
 70
     1
  0
VERTEX
  5
611
  8
0
 10
8.1178342656170983
 20
-42.7084104823778716
 30
0.0
  0
VERTEX
  5
612
  8
0
 10
8.1178342656170983
 20
-42.2084104823778787
 30
0.0
  0
VERTEX
  5
613
  8
0
 10
8.6178342656170983
 20
-42.2084104823778787
 30
0.0
  0
VERTEX
  5
614
  8
0
 10
8.6178342656170983
 20
-42.7084104823778716
 30
0.0
  0
SEQEND
  5
615
  8
0
  0
LINE
  5
306
  8
0
 10
9.1178342656170983
 20
-55.9584104823778787
 30
0.0
 11
9.1178342656170983
 21
-40.9584104823778787
 31
0.0
  0
LINE
  5
307
  8
0
 10
9.1178342656170983
 20
-40.9584104823778787
 30
0.0
 11
10.1178342656171001
 21
-40.9584104823778787
 31
0.0
  0
LINE
  5
308
  8
0
 10
10.1178342656171001
 20
-40.9584104823778787
 30
0.0
 11
10.1178342656171001
 21
-55.9584104823778787
 31
0.0
  0
LINE
  5
309
  8
0
 10
10.1178342656171001
 20
-55.9584104823778787
 30
0.0
 11
9.1178342656170983
 21
-55.9584104823778787
 31
0.0
  0
POLYLINE
  5
30A
  8
0
 66
     1
 10
0.0
 20
0.0
 30
0.0
 70
     1
  0
VERTEX
  5
616
  8
0
 10
9.1178342656170983
 20
-54.7084104823778787
 30
0.0
  0
VERTEX
  5
617
  8
0
 10
9.1178342656170983
 20
-54.2084104823778787
 30
0.0
  0
VERTEX
  5
618
  8
0
 10
9.6178342656170983
 20
-54.2084104823778787
 30
0.0
  0
VERTEX
  5
619
  8
0
 10
9.6178342656170983
 20
-54.7084104823778787
 30
0.0
  0
SEQEND
  5
61A
  8
0
  0
POLYLINE
  5
30B
  8
0
 66
     1
 10
0.0
 20
0.0
 30
0.0
 70
     1
  0
VERTEX
  5
61B
  8
0
 10
9.6178342656170983
 20
-48.7084104823778787
 30
0.0
  0
VERTEX
  5
61C
  8
0
 10
9.6178342656170983
 20
-48.2084104823778787
 30
0.0
  0
VERTEX
  5
61D
  8
0
 10
10.1178342656171001
 20
-48.2084104823778787
 30
0.0
  0
VERTEX
  5
61E
  8
0
 10
10.1178342656171001
 20
-48.7084104823778787
 30
0.0
  0
SEQEND
  5
61F
  8
0
  0
POLYLINE
  5
30C
  8
0
 66
     1
 10
0.0
 20
0.0
 30
0.0
 70
     1
  0
VERTEX
  5
620
  8
0
 10
9.1178342656170983
 20
-42.7084104823778716
 30
0.0
  0
VERTEX
  5
621
  8
0
 10
9.1178342656170983
 20
-42.2084104823778787
 30
0.0
  0
VERTEX
  5
622
  8
0
 10
9.6178342656170983
 20
-42.2084104823778787
 30
0.0
  0
VERTEX
  5
623
  8
0
 10
9.6178342656170983
 20
-42.7084104823778716
 30
0.0
  0
SEQEND
  5
624
  8
0
  0
LINE
  5
30D
  8
0
 10
10.1178342656171001
 20
-55.9584104823778787
 30
0.0
 11
10.1178342656171001
 21
-40.9584104823778787
 31
0.0
  0
LINE
  5
30E
  8
0
 10
10.1178342656171001
 20
-40.9584104823778787
 30
0.0
 11
11.1178342656171001
 21
-40.9584104823778787
 31
0.0
  0
LINE
  5
30F
  8
0
 10
11.1178342656171001
 20
-40.9584104823778787
 30
0.0
 11
11.1178342656171001
 21
-55.9584104823778787
 31
0.0
  0
LINE
  5
310
  8
0
 10
11.1178342656171001
 20
-55.9584104823778787
 30
0.0
 11
10.1178342656171001
 21
-55.9584104823778787
 31
0.0
  0
POLYLINE
  5
311
  8
0
 66
     1
 10
0.0
 20
0.0
 30
0.0
 70
     1
  0
VERTEX
  5
625
  8
0
 10
10.1178342656171001
 20
-54.7084104823778787
 30
0.0
  0
VERTEX
  5
626
  8
0
 10
10.1178342656171001
 20
-54.2084104823778787
 30
0.0
  0
VERTEX
  5
627
  8
0
 10
10.6178342656171001
 20
-54.2084104823778787
 30
0.0
  0
VERTEX
  5
628
  8
0
 10
10.6178342656171001
 20
-54.7084104823778787
 30
0.0
  0
SEQEND
  5
629
  8
0
  0
POLYLINE
  5
312
  8
0
 66
     1
 10
0.0
 20
0.0
 30
0.0
 70
     1
  0
VERTEX
  5
62A
  8
0
 10
10.6178342656171001
 20
-48.7084104823778787
 30
0.0
  0
VERTEX
  5
62B
  8
0
 10
10.6178342656171001
 20
-48.2084104823778787
 30
0.0
  0
VERTEX
  5
62C
  8
0
 10
11.1178342656171001
 20
-48.2084104823778787
 30
0.0
  0
VERTEX
  5
62D
  8
0
 10
11.1178342656171001
 20
-48.7084104823778787
 30
0.0
  0
SEQEND
  5
62E
  8
0
  0
POLYLINE
  5
313
  8
0
 66
     1
 10
0.0
 20
0.0
 30
0.0
 70
     1
  0
VERTEX
  5
62F
  8
0
 10
10.1178342656171001
 20
-42.7084104823778716
 30
0.0
  0
VERTEX
  5
630
  8
0
 10
10.1178342656171001
 20
-42.2084104823778787
 30
0.0
  0
VERTEX
  5
631
  8
0
 10
10.6178342656171001
 20
-42.2084104823778787
 30
0.0
  0
VERTEX
  5
632
  8
0
 10
10.6178342656171001
 20
-42.7084104823778716
 30
0.0
  0
SEQEND
  5
633
  8
0
  0
LINE
  5
314
  8
0
 10
11.1178342656171001
 20
-55.9584104823778787
 30
0.0
 11
11.1178342656171001
 21
-40.9584104823778787
 31
0.0
  0
LINE
  5
315
  8
0
 10
11.1178342656171001
 20
-40.9584104823778787
 30
0.0
 11
12.1178342656171001
 21
-40.9584104823778787
 31
0.0
  0
LINE
  5
316
  8
0
 10
12.1178342656171001
 20
-40.9584104823778787
 30
0.0
 11
12.1178342656171001
 21
-55.9584104823778787
 31
0.0
  0
LINE
  5
317
  8
0
 10
12.1178342656171001
 20
-55.9584104823778787
 30
0.0
 11
11.1178342656171001
 21
-55.9584104823778787
 31
0.0
  0
POLYLINE
  5
318
  8
0
 66
     1
 10
0.0
 20
0.0
 30
0.0
 70
     1
  0
VERTEX
  5
634
  8
0
 10
11.1178342656171001
 20
-54.7084104823778787
 30
0.0
  0
VERTEX
  5
635
  8
0
 10
11.1178342656171001
 20
-54.2084104823778787
 30
0.0
  0
VERTEX
  5
636
  8
0
 10
11.6178342656171001
 20
-54.2084104823778787
 30
0.0
  0
VERTEX
  5
637
  8
0
 10
11.6178342656171001
 20
-54.7084104823778787
 30
0.0
  0
SEQEND
  5
638
  8
0
  0
POLYLINE
  5
319
  8
0
 66
     1
 10
0.0
 20
0.0
 30
0.0
 70
     1
  0
VERTEX
  5
639
  8
0
 10
11.6178342656171001
 20
-48.7084104823778787
 30
0.0
  0
VERTEX
  5
63A
  8
0
 10
11.6178342656171001
 20
-48.2084104823778787
 30
0.0
  0
VERTEX
  5
63B
  8
0
 10
12.1178342656171001
 20
-48.2084104823778787
 30
0.0
  0
VERTEX
  5
63C
  8
0
 10
12.1178342656171001
 20
-48.7084104823778787
 30
0.0
  0
SEQEND
  5
63D
  8
0
  0
POLYLINE
  5
31A
  8
0
 66
     1
 10
0.0
 20
0.0
 30
0.0
 70
     1
  0
VERTEX
  5
63E
  8
0
 10
11.1178342656171001
 20
-42.7084104823778716
 30
0.0
  0
VERTEX
  5
63F
  8
0
 10
11.1178342656171001
 20
-42.2084104823778787
 30
0.0
  0
VERTEX
  5
640
  8
0
 10
11.6178342656171001
 20
-42.2084104823778787
 30
0.0
  0
VERTEX
  5
641
  8
0
 10
11.6178342656171001
 20
-42.7084104823778716
 30
0.0
  0
SEQEND
  5
642
  8
0
  0
LINE
  5
31B
  8
0
 10
12.1178342656171001
 20
-55.9584104823778787
 30
0.0
 11
12.1178342656171001
 21
-40.9584104823778787
 31
0.0
  0
LINE
  5
31C
  8
0
 10
12.1178342656171001
 20
-40.9584104823778787
 30
0.0
 11
13.1178342656171001
 21
-40.9584104823778787
 31
0.0
  0
LINE
  5
31D
  8
0
 10
13.1178342656171001
 20
-40.9584104823778787
 30
0.0
 11
13.1178342656171001
 21
-55.9584104823778787
 31
0.0
  0
LINE
  5
31E
  8
0
 10
13.1178342656171001
 20
-55.9584104823778787
 30
0.0
 11
12.1178342656171001
 21
-55.9584104823778787
 31
0.0
  0
POLYLINE
  5
31F
  8
0
 66
     1
 10
0.0
 20
0.0
 30
0.0
 70
     1
  0
VERTEX
  5
643
  8
0
 10
12.1178342656171001
 20
-54.7084104823778787
 30
0.0
  0
VERTEX
  5
644
  8
0
 10
12.1178342656171001
 20
-54.2084104823778787
 30
0.0
  0
VERTEX
  5
645
  8
0
 10
12.6178342656171001
 20
-54.2084104823778787
 30
0.0
  0
VERTEX
  5
646
  8
0
 10
12.6178342656171001
 20
-54.7084104823778787
 30
0.0
  0
SEQEND
  5
647
  8
0
  0
POLYLINE
  5
320
  8
0
 66
     1
 10
0.0
 20
0.0
 30
0.0
 70
     1
  0
VERTEX
  5
648
  8
0
 10
12.6178342656171001
 20
-48.7084104823778787
 30
0.0
  0
VERTEX
  5
649
  8
0
 10
12.6178342656171001
 20
-48.2084104823778787
 30
0.0
  0
VERTEX
  5
64A
  8
0
 10
13.1178342656171001
 20
-48.2084104823778787
 30
0.0
  0
VERTEX
  5
64B
  8
0
 10
13.1178342656171001
 20
-48.7084104823778787
 30
0.0
  0
SEQEND
  5
64C
  8
0
  0
POLYLINE
  5
321
  8
0
 66
     1
 10
0.0
 20
0.0
 30
0.0
 70
     1
  0
VERTEX
  5
64D
  8
0
 10
12.1178342656171001
 20
-42.7084104823778716
 30
0.0
  0
VERTEX
  5
64E
  8
0
 10
12.1178342656171001
 20
-42.2084104823778787
 30
0.0
  0
VERTEX
  5
64F
  8
0
 10
12.6178342656171001
 20
-42.2084104823778787
 30
0.0
  0
VERTEX
  5
650
  8
0
 10
12.6178342656171001
 20
-42.7084104823778716
 30
0.0
  0
SEQEND
  5
651
  8
0
  0
LINE
  5
322
  8
0
 10
13.1178342656171001
 20
-55.9584104823778787
 30
0.0
 11
13.1178342656171001
 21
-40.9584104823778787
 31
0.0
  0
LINE
  5
323
  8
0
 10
13.1178342656171001
 20
-40.9584104823778787
 30
0.0
 11
14.1178342656171001
 21
-40.9584104823778787
 31
0.0
  0
LINE
  5
324
  8
0
 10
14.1178342656171001
 20
-40.9584104823778787
 30
0.0
 11
14.1178342656171001
 21
-55.9584104823778787
 31
0.0
  0
LINE
  5
325
  8
0
 10
14.1178342656171001
 20
-55.9584104823778787
 30
0.0
 11
13.1178342656171001
 21
-55.9584104823778787
 31
0.0
  0
POLYLINE
  5
326
  8
0
 66
     1
 10
0.0
 20
0.0
 30
0.0
 70
     1
  0
VERTEX
  5
652
  8
0
 10
13.1178342656171001
 20
-54.7084104823778787
 30
0.0
  0
VERTEX
  5
653
  8
0
 10
13.1178342656171001
 20
-54.2084104823778787
 30
0.0
  0
VERTEX
  5
654
  8
0
 10
13.6178342656171001
 20
-54.2084104823778787
 30
0.0
  0
VERTEX
  5
655
  8
0
 10
13.6178342656171001
 20
-54.7084104823778787
 30
0.0
  0
SEQEND
  5
656
  8
0
  0
POLYLINE
  5
327
  8
0
 66
     1
 10
0.0
 20
0.0
 30
0.0
 70
     1
  0
VERTEX
  5
657
  8
0
 10
13.6178342656171001
 20
-48.7084104823778787
 30
0.0
  0
VERTEX
  5
658
  8
0
 10
13.6178342656171001
 20
-48.2084104823778787
 30
0.0
  0
VERTEX
  5
659
  8
0
 10
14.1178342656171001
 20
-48.2084104823778787
 30
0.0
  0
VERTEX
  5
65A
  8
0
 10
14.1178342656171001
 20
-48.7084104823778787
 30
0.0
  0
SEQEND
  5
65B
  8
0
  0
POLYLINE
  5
328
  8
0
 66
     1
 10
0.0
 20
0.0
 30
0.0
 70
     1
  0
VERTEX
  5
65C
  8
0
 10
13.1178342656171001
 20
-42.7084104823778716
 30
0.0
  0
VERTEX
  5
65D
  8
0
 10
13.1178342656171001
 20
-42.2084104823778787
 30
0.0
  0
VERTEX
  5
65E
  8
0
 10
13.6178342656171001
 20
-42.2084104823778787
 30
0.0
  0
VERTEX
  5
65F
  8
0
 10
13.6178342656171001
 20
-42.7084104823778716
 30
0.0
  0
SEQEND
  5
660
  8
0
  0
LINE
  5
329
  8
0
 10
14.1178342656171001
 20
-55.9584104823778787
 30
0.0
 11
14.1178342656171001
 21
-40.9584104823778787
 31
0.0
  0
LINE
  5
32A
  8
0
 10
14.1178342656171001
 20
-40.9584104823778787
 30
0.0
 11
15.1178342656171001
 21
-40.9584104823778787
 31
0.0
  0
LINE
  5
32B
  8
0
 10
15.1178342656171001
 20
-40.9584104823778787
 30
0.0
 11
15.1178342656171001
 21
-55.9584104823778787
 31
0.0
  0
LINE
  5
32C
  8
0
 10
15.1178342656171001
 20
-55.9584104823778787
 30
0.0
 11
14.1178342656171001
 21
-55.9584104823778787
 31
0.0
  0
POLYLINE
  5
32D
  8
0
 66
     1
 10
0.0
 20
0.0
 30
0.0
 70
     1
  0
VERTEX
  5
661
  8
0
 10
14.1178342656171001
 20
-54.7084104823778787
 30
0.0
  0
VERTEX
  5
662
  8
0
 10
14.1178342656171001
 20
-54.2084104823778787
 30
0.0
  0
VERTEX
  5
663
  8
0
 10
14.6178342656171001
 20
-54.2084104823778787
 30
0.0
  0
VERTEX
  5
664
  8
0
 10
14.6178342656171001
 20
-54.7084104823778787
 30
0.0
  0
SEQEND
  5
665
  8
0
  0
POLYLINE
  5
32E
  8
0
 66
     1
 10
0.0
 20
0.0
 30
0.0
 70
     1
  0
VERTEX
  5
666
  8
0
 10
14.6178342656171001
 20
-48.7084104823778787
 30
0.0
  0
VERTEX
  5
667
  8
0
 10
14.6178342656171001
 20
-48.2084104823778787
 30
0.0
  0
VERTEX
  5
668
  8
0
 10
15.1178342656171001
 20
-48.2084104823778787
 30
0.0
  0
VERTEX
  5
669
  8
0
 10
15.1178342656171001
 20
-48.7084104823778787
 30
0.0
  0
SEQEND
  5
66A
  8
0
  0
POLYLINE
  5
32F
  8
0
 66
     1
 10
0.0
 20
0.0
 30
0.0
 70
     1
  0
VERTEX
  5
66B
  8
0
 10
14.1178342656171001
 20
-42.7084104823778716
 30
0.0
  0
VERTEX
  5
66C
  8
0
 10
14.1178342656171001
 20
-42.2084104823778787
 30
0.0
  0
VERTEX
  5
66D
  8
0
 10
14.6178342656171001
 20
-42.2084104823778787
 30
0.0
  0
VERTEX
  5
66E
  8
0
 10
14.6178342656171001
 20
-42.7084104823778716
 30
0.0
  0
SEQEND
  5
66F
  8
0
  0
LINE
  5
330
  8
0
 10
15.1178342656171001
 20
-55.9584104823778787
 30
0.0
 11
15.1178342656171001
 21
-40.9584104823778787
 31
0.0
  0
LINE
  5
331
  8
0
 10
15.1178342656171001
 20
-40.9584104823778787
 30
0.0
 11
16.1178342656170983
 21
-40.9584104823778787
 31
0.0
  0
LINE
  5
332
  8
0
 10
16.1178342656170983
 20
-40.9584104823778787
 30
0.0
 11
16.1178342656170983
 21
-55.9584104823778787
 31
0.0
  0
LINE
  5
333
  8
0
 10
16.1178342656170983
 20
-55.9584104823778787
 30
0.0
 11
15.1178342656171001
 21
-55.9584104823778787
 31
0.0
  0
POLYLINE
  5
334
  8
0
 66
     1
 10
0.0
 20
0.0
 30
0.0
 70
     1
  0
VERTEX
  5
670
  8
0
 10
15.1178342656171001
 20
-54.7084104823778787
 30
0.0
  0
VERTEX
  5
671
  8
0
 10
15.1178342656171001
 20
-54.2084104823778787
 30
0.0
  0
VERTEX
  5
672
  8
0
 10
15.6178342656171001
 20
-54.2084104823778787
 30
0.0
  0
VERTEX
  5
673
  8
0
 10
15.6178342656171001
 20
-54.7084104823778787
 30
0.0
  0
SEQEND
  5
674
  8
0
  0
POLYLINE
  5
335
  8
0
 66
     1
 10
0.0
 20
0.0
 30
0.0
 70
     1
  0
VERTEX
  5
675
  8
0
 10
15.6178342656171001
 20
-48.7084104823778787
 30
0.0
  0
VERTEX
  5
676
  8
0
 10
15.6178342656171001
 20
-48.2084104823778787
 30
0.0
  0
VERTEX
  5
677
  8
0
 10
16.1178342656170983
 20
-48.2084104823778787
 30
0.0
  0
VERTEX
  5
678
  8
0
 10
16.1178342656170983
 20
-48.7084104823778787
 30
0.0
  0
SEQEND
  5
679
  8
0
  0
POLYLINE
  5
336
  8
0
 66
     1
 10
0.0
 20
0.0
 30
0.0
 70
     1
  0
VERTEX
  5
67A
  8
0
 10
15.1178342656171001
 20
-42.7084104823778716
 30
0.0
  0
VERTEX
  5
67B
  8
0
 10
15.1178342656171001
 20
-42.2084104823778787
 30
0.0
  0
VERTEX
  5
67C
  8
0
 10
15.6178342656171001
 20
-42.2084104823778787
 30
0.0
  0
VERTEX
  5
67D
  8
0
 10
15.6178342656171001
 20
-42.7084104823778716
 30
0.0
  0
SEQEND
  5
67E
  8
0
  0
LINE
  5
337
  8
0
 10
16.1178342656170983
 20
-55.9584104823778787
 30
0.0
 11
16.1178342656170983
 21
-40.9584104823778787
 31
0.0
  0
LINE
  5
338
  8
0
 10
16.1178342656170983
 20
-40.9584104823778787
 30
0.0
 11
17.1178342656170983
 21
-40.9584104823778787
 31
0.0
  0
LINE
  5
339
  8
0
 10
17.1178342656170983
 20
-40.9584104823778787
 30
0.0
 11
17.1178342656170983
 21
-55.9584104823778787
 31
0.0
  0
LINE
  5
33A
  8
0
 10
17.1178342656170983
 20
-55.9584104823778787
 30
0.0
 11
16.1178342656170983
 21
-55.9584104823778787
 31
0.0
  0
POLYLINE
  5
33B
  8
0
 66
     1
 10
0.0
 20
0.0
 30
0.0
 70
     1
  0
VERTEX
  5
67F
  8
0
 10
16.1178342656170983
 20
-54.7084104823778787
 30
0.0
  0
VERTEX
  5
680
  8
0
 10
16.1178342656170983
 20
-54.2084104823778787
 30
0.0
  0
VERTEX
  5
681
  8
0
 10
16.6178342656170983
 20
-54.2084104823778787
 30
0.0
  0
VERTEX
  5
682
  8
0
 10
16.6178342656170983
 20
-54.7084104823778787
 30
0.0
  0
SEQEND
  5
683
  8
0
  0
POLYLINE
  5
33C
  8
0
 66
     1
 10
0.0
 20
0.0
 30
0.0
 70
     1
  0
VERTEX
  5
684
  8
0
 10
16.6178342656170983
 20
-48.7084104823778787
 30
0.0
  0
VERTEX
  5
685
  8
0
 10
16.6178342656170983
 20
-48.2084104823778787
 30
0.0
  0
VERTEX
  5
686
  8
0
 10
17.1178342656170983
 20
-48.2084104823778787
 30
0.0
  0
VERTEX
  5
687
  8
0
 10
17.1178342656170983
 20
-48.7084104823778787
 30
0.0
  0
SEQEND
  5
688
  8
0
  0
POLYLINE
  5
33D
  8
0
 66
     1
 10
0.0
 20
0.0
 30
0.0
 70
     1
  0
VERTEX
  5
689
  8
0
 10
16.1178342656170983
 20
-42.7084104823778716
 30
0.0
  0
VERTEX
  5
68A
  8
0
 10
16.1178342656170983
 20
-42.2084104823778787
 30
0.0
  0
VERTEX
  5
68B
  8
0
 10
16.6178342656170983
 20
-42.2084104823778787
 30
0.0
  0
VERTEX
  5
68C
  8
0
 10
16.6178342656170983
 20
-42.7084104823778716
 30
0.0
  0
SEQEND
  5
68D
  8
0
  0
LINE
  5
33E
  8
0
 10
17.1178342656170983
 20
-55.9584104823778787
 30
0.0
 11
17.1178342656170983
 21
-40.9584104823778787
 31
0.0
  0
LINE
  5
33F
  8
0
 10
17.1178342656170983
 20
-40.9584104823778787
 30
0.0
 11
18.1178342656170983
 21
-40.9584104823778787
 31
0.0
  0
LINE
  5
340
  8
0
 10
18.1178342656170983
 20
-40.9584104823778787
 30
0.0
 11
18.1178342656170983
 21
-55.9584104823778787
 31
0.0
  0
LINE
  5
341
  8
0
 10
18.1178342656170983
 20
-55.9584104823778787
 30
0.0
 11
17.1178342656170983
 21
-55.9584104823778787
 31
0.0
  0
POLYLINE
  5
342
  8
0
 66
     1
 10
0.0
 20
0.0
 30
0.0
 70
     1
  0
VERTEX
  5
68E
  8
0
 10
17.1178342656170983
 20
-54.7084104823778787
 30
0.0
  0
VERTEX
  5
68F
  8
0
 10
17.1178342656170983
 20
-54.2084104823778787
 30
0.0
  0
VERTEX
  5
690
  8
0
 10
17.6178342656170983
 20
-54.2084104823778787
 30
0.0
  0
VERTEX
  5
691
  8
0
 10
17.6178342656170983
 20
-54.7084104823778787
 30
0.0
  0
SEQEND
  5
692
  8
0
  0
POLYLINE
  5
343
  8
0
 66
     1
 10
0.0
 20
0.0
 30
0.0
 70
     1
  0
VERTEX
  5
693
  8
0
 10
17.6178342656170983
 20
-48.7084104823778787
 30
0.0
  0
VERTEX
  5
694
  8
0
 10
17.6178342656170983
 20
-48.2084104823778787
 30
0.0
  0
VERTEX
  5
695
  8
0
 10
18.1178342656170983
 20
-48.2084104823778787
 30
0.0
  0
VERTEX
  5
696
  8
0
 10
18.1178342656170983
 20
-48.7084104823778787
 30
0.0
  0
SEQEND
  5
697
  8
0
  0
POLYLINE
  5
344
  8
0
 66
     1
 10
0.0
 20
0.0
 30
0.0
 70
     1
  0
VERTEX
  5
698
  8
0
 10
17.1178342656170983
 20
-42.7084104823778716
 30
0.0
  0
VERTEX
  5
699
  8
0
 10
17.1178342656170983
 20
-42.2084104823778787
 30
0.0
  0
VERTEX
  5
69A
  8
0
 10
17.6178342656170983
 20
-42.2084104823778787
 30
0.0
  0
VERTEX
  5
69B
  8
0
 10
17.6178342656170983
 20
-42.7084104823778716
 30
0.0
  0
SEQEND
  5
69C
  8
0
  0
LINE
  5
345
  8
0
 10
18.1178342656170983
 20
-55.9584104823778787
 30
0.0
 11
18.1178342656170983
 21
-40.9584104823778787
 31
0.0
  0
LINE
  5
346
  8
0
 10
18.1178342656170983
 20
-40.9584104823778787
 30
0.0
 11
19.1178342656170983
 21
-40.9584104823778787
 31
0.0
  0
LINE
  5
347
  8
0
 10
19.1178342656170983
 20
-40.9584104823778787
 30
0.0
 11
19.1178342656170983
 21
-55.9584104823778787
 31
0.0
  0
LINE
  5
348
  8
0
 10
19.1178342656170983
 20
-55.9584104823778787
 30
0.0
 11
18.1178342656170983
 21
-55.9584104823778787
 31
0.0
  0
POLYLINE
  5
349
  8
0
 66
     1
 10
0.0
 20
0.0
 30
0.0
 70
     1
  0
VERTEX
  5
69D
  8
0
 10
18.1178342656170983
 20
-54.7084104823778787
 30
0.0
  0
VERTEX
  5
69E
  8
0
 10
18.1178342656170983
 20
-54.2084104823778787
 30
0.0
  0
VERTEX
  5
69F
  8
0
 10
18.6178342656170983
 20
-54.2084104823778787
 30
0.0
  0
VERTEX
  5
6A0
  8
0
 10
18.6178342656170983
 20
-54.7084104823778787
 30
0.0
  0
SEQEND
  5
6A1
  8
0
  0
POLYLINE
  5
34A
  8
0
 66
     1
 10
0.0
 20
0.0
 30
0.0
 70
     1
  0
VERTEX
  5
6A2
  8
0
 10
18.6178342656170983
 20
-48.7084104823778787
 30
0.0
  0
VERTEX
  5
6A3
  8
0
 10
18.6178342656170983
 20
-48.2084104823778787
 30
0.0
  0
VERTEX
  5
6A4
  8
0
 10
19.1178342656170983
 20
-48.2084104823778787
 30
0.0
  0
VERTEX
  5
6A5
  8
0
 10
19.1178342656170983
 20
-48.7084104823778787
 30
0.0
  0
SEQEND
  5
6A6
  8
0
  0
POLYLINE
  5
34B
  8
0
 66
     1
 10
0.0
 20
0.0
 30
0.0
 70
     1
  0
VERTEX
  5
6A7
  8
0
 10
18.1178342656170983
 20
-42.7084104823778716
 30
0.0
  0
VERTEX
  5
6A8
  8
0
 10
18.1178342656170983
 20
-42.2084104823778787
 30
0.0
  0
VERTEX
  5
6A9
  8
0
 10
18.6178342656170983
 20
-42.2084104823778787
 30
0.0
  0
VERTEX
  5
6AA
  8
0
 10
18.6178342656170983
 20
-42.7084104823778716
 30
0.0
  0
SEQEND
  5
6AB
  8
0
  0
LINE
  5
34C
  8
0
 10
19.1178342656170983
 20
-55.9584104823778787
 30
0.0
 11
19.1178342656170983
 21
-40.9584104823778787
 31
0.0
  0
LINE
  5
34D
  8
0
 10
19.1178342656170983
 20
-40.9584104823778787
 30
0.0
 11
20.1178342656170983
 21
-40.9584104823778787
 31
0.0
  0
LINE
  5
34E
  8
0
 10
20.1178342656170983
 20
-40.9584104823778787
 30
0.0
 11
20.1178342656170983
 21
-55.9584104823778787
 31
0.0
  0
LINE
  5
34F
  8
0
 10
20.1178342656170983
 20
-55.9584104823778787
 30
0.0
 11
19.1178342656170983
 21
-55.9584104823778787
 31
0.0
  0
POLYLINE
  5
350
  8
0
 66
     1
 10
0.0
 20
0.0
 30
0.0
 70
     1
  0
VERTEX
  5
6AC
  8
0
 10
19.1178342656170983
 20
-54.7084104823778787
 30
0.0
  0
VERTEX
  5
6AD
  8
0
 10
19.1178342656170983
 20
-54.2084104823778787
 30
0.0
  0
VERTEX
  5
6AE
  8
0
 10
19.6178342656170983
 20
-54.2084104823778787
 30
0.0
  0
VERTEX
  5
6AF
  8
0
 10
19.6178342656170983
 20
-54.7084104823778787
 30
0.0
  0
SEQEND
  5
6B0
  8
0
  0
POLYLINE
  5
351
  8
0
 66
     1
 10
0.0
 20
0.0
 30
0.0
 70
     1
  0
VERTEX
  5
6B1
  8
0
 10
19.6178342656170983
 20
-48.7084104823778787
 30
0.0
  0
VERTEX
  5
6B2
  8
0
 10
19.6178342656170983
 20
-48.2084104823778787
 30
0.0
  0
VERTEX
  5
6B3
  8
0
 10
20.1178342656170983
 20
-48.2084104823778787
 30
0.0
  0
VERTEX
  5
6B4
  8
0
 10
20.1178342656170983
 20
-48.7084104823778787
 30
0.0
  0
SEQEND
  5
6B5
  8
0
  0
POLYLINE
  5
352
  8
0
 66
     1
 10
0.0
 20
0.0
 30
0.0
 70
     1
  0
VERTEX
  5
6B6
  8
0
 10
19.1178342656170983
 20
-42.7084104823778716
 30
0.0
  0
VERTEX
  5
6B7
  8
0
 10
19.1178342656170983
 20
-42.2084104823778787
 30
0.0
  0
VERTEX
  5
6B8
  8
0
 10
19.6178342656170983
 20
-42.2084104823778787
 30
0.0
  0
VERTEX
  5
6B9
  8
0
 10
19.6178342656170983
 20
-42.7084104823778716
 30
0.0
  0
SEQEND
  5
6BA
  8
0
  0
LINE
  5
353
  8
0
 10
20.1178342656170983
 20
-55.9584104823778787
 30
0.0
 11
20.1178342656170983
 21
-40.9584104823778787
 31
0.0
  0
LINE
  5
354
  8
0
 10
20.1178342656170983
 20
-40.9584104823778787
 30
0.0
 11
21.1178342656170983
 21
-40.9584104823778787
 31
0.0
  0
LINE
  5
355
  8
0
 10
21.1178342656170983
 20
-40.9584104823778787
 30
0.0
 11
21.1178342656170983
 21
-55.9584104823778787
 31
0.0
  0
LINE
  5
356
  8
0
 10
21.1178342656170983
 20
-55.9584104823778787
 30
0.0
 11
20.1178342656170983
 21
-55.9584104823778787
 31
0.0
  0
POLYLINE
  5
357
  8
0
 66
     1
 10
0.0
 20
0.0
 30
0.0
 70
     1
  0
VERTEX
  5
6BB
  8
0
 10
20.1178342656170983
 20
-54.7084104823778787
 30
0.0
  0
VERTEX
  5
6BC
  8
0
 10
20.1178342656170983
 20
-54.2084104823778787
 30
0.0
  0
VERTEX
  5
6BD
  8
0
 10
20.6178342656170983
 20
-54.2084104823778787
 30
0.0
  0
VERTEX
  5
6BE
  8
0
 10
20.6178342656170983
 20
-54.7084104823778787
 30
0.0
  0
SEQEND
  5
6BF
  8
0
  0
POLYLINE
  5
358
  8
0
 66
     1
 10
0.0
 20
0.0
 30
0.0
 70
     1
  0
VERTEX
  5
6C0
  8
0
 10
20.6178342656170983
 20
-48.7084104823778787
 30
0.0
  0
VERTEX
  5
6C1
  8
0
 10
20.6178342656170983
 20
-48.2084104823778787
 30
0.0
  0
VERTEX
  5
6C2
  8
0
 10
21.1178342656170983
 20
-48.2084104823778787
 30
0.0
  0
VERTEX
  5
6C3
  8
0
 10
21.1178342656170983
 20
-48.7084104823778787
 30
0.0
  0
SEQEND
  5
6C4
  8
0
  0
POLYLINE
  5
359
  8
0
 66
     1
 10
0.0
 20
0.0
 30
0.0
 70
     1
  0
VERTEX
  5
6C5
  8
0
 10
20.1178342656170983
 20
-42.7084104823778716
 30
0.0
  0
VERTEX
  5
6C6
  8
0
 10
20.1178342656170983
 20
-42.2084104823778787
 30
0.0
  0
VERTEX
  5
6C7
  8
0
 10
20.6178342656170983
 20
-42.2084104823778787
 30
0.0
  0
VERTEX
  5
6C8
  8
0
 10
20.6178342656170983
 20
-42.7084104823778716
 30
0.0
  0
SEQEND
  5
6C9
  8
0
  0
LINE
  5
35A
  8
0
 10
21.1178342656170983
 20
-55.9584104823778787
 30
0.0
 11
21.1178342656170983
 21
-40.9584104823778787
 31
0.0
  0
LINE
  5
35B
  8
0
 10
21.1178342656170983
 20
-40.9584104823778787
 30
0.0
 11
22.1178342656170983
 21
-40.9584104823778787
 31
0.0
  0
LINE
  5
35C
  8
0
 10
22.1178342656170983
 20
-40.9584104823778787
 30
0.0
 11
22.1178342656170983
 21
-55.9584104823778787
 31
0.0
  0
LINE
  5
35D
  8
0
 10
22.1178342656170983
 20
-55.9584104823778787
 30
0.0
 11
21.1178342656170983
 21
-55.9584104823778787
 31
0.0
  0
POLYLINE
  5
35E
  8
0
 66
     1
 10
0.0
 20
0.0
 30
0.0
 70
     1
  0
VERTEX
  5
6CA
  8
0
 10
21.1178342656170983
 20
-54.7084104823778787
 30
0.0
  0
VERTEX
  5
6CB
  8
0
 10
21.1178342656170983
 20
-54.2084104823778787
 30
0.0
  0
VERTEX
  5
6CC
  8
0
 10
21.6178342656170983
 20
-54.2084104823778787
 30
0.0
  0
VERTEX
  5
6CD
  8
0
 10
21.6178342656170983
 20
-54.7084104823778787
 30
0.0
  0
SEQEND
  5
6CE
  8
0
  0
POLYLINE
  5
35F
  8
0
 66
     1
 10
0.0
 20
0.0
 30
0.0
 70
     1
  0
VERTEX
  5
6CF
  8
0
 10
21.6178342656170983
 20
-48.7084104823778787
 30
0.0
  0
VERTEX
  5
6D0
  8
0
 10
21.6178342656170983
 20
-48.2084104823778787
 30
0.0
  0
VERTEX
  5
6D1
  8
0
 10
22.1178342656170983
 20
-48.2084104823778787
 30
0.0
  0
VERTEX
  5
6D2
  8
0
 10
22.1178342656170983
 20
-48.7084104823778787
 30
0.0
  0
SEQEND
  5
6D3
  8
0
  0
POLYLINE
  5
360
  8
0
 66
     1
 10
0.0
 20
0.0
 30
0.0
 70
     1
  0
VERTEX
  5
6D4
  8
0
 10
21.1178342656170983
 20
-42.7084104823778716
 30
0.0
  0
VERTEX
  5
6D5
  8
0
 10
21.1178342656170983
 20
-42.2084104823778787
 30
0.0
  0
VERTEX
  5
6D6
  8
0
 10
21.6178342656170983
 20
-42.2084104823778787
 30
0.0
  0
VERTEX
  5
6D7
  8
0
 10
21.6178342656170983
 20
-42.7084104823778716
 30
0.0
  0
SEQEND
  5
6D8
  8
0
  0
LINE
  5
361
  8
0
 10
22.1178342656170983
 20
-55.9584104823778787
 30
0.0
 11
22.1178342656170983
 21
-40.9584104823778787
 31
0.0
  0
LINE
  5
362
  8
0
 10
22.1178342656170983
 20
-40.9584104823778787
 30
0.0
 11
23.1178342656170983
 21
-40.9584104823778787
 31
0.0
  0
LINE
  5
363
  8
0
 10
23.1178342656170983
 20
-40.9584104823778787
 30
0.0
 11
23.1178342656170983
 21
-55.9584104823778787
 31
0.0
  0
LINE
  5
364
  8
0
 10
23.1178342656170983
 20
-55.9584104823778787
 30
0.0
 11
22.1178342656170983
 21
-55.9584104823778787
 31
0.0
  0
POLYLINE
  5
365
  8
0
 66
     1
 10
0.0
 20
0.0
 30
0.0
 70
     1
  0
VERTEX
  5
6D9
  8
0
 10
22.1178342656170983
 20
-54.7084104823778787
 30
0.0
  0
VERTEX
  5
6DA
  8
0
 10
22.1178342656170983
 20
-54.2084104823778787
 30
0.0
  0
VERTEX
  5
6DB
  8
0
 10
22.6178342656170983
 20
-54.2084104823778787
 30
0.0
  0
VERTEX
  5
6DC
  8
0
 10
22.6178342656170983
 20
-54.7084104823778787
 30
0.0
  0
SEQEND
  5
6DD
  8
0
  0
POLYLINE
  5
366
  8
0
 66
     1
 10
0.0
 20
0.0
 30
0.0
 70
     1
  0
VERTEX
  5
6DE
  8
0
 10
22.6178342656170983
 20
-48.7084104823778787
 30
0.0
  0
VERTEX
  5
6DF
  8
0
 10
22.6178342656170983
 20
-48.2084104823778787
 30
0.0
  0
VERTEX
  5
6E0
  8
0
 10
23.1178342656170983
 20
-48.2084104823778787
 30
0.0
  0
VERTEX
  5
6E1
  8
0
 10
23.1178342656170983
 20
-48.7084104823778787
 30
0.0
  0
SEQEND
  5
6E2
  8
0
  0
POLYLINE
  5
367
  8
0
 66
     1
 10
0.0
 20
0.0
 30
0.0
 70
     1
  0
VERTEX
  5
6E3
  8
0
 10
22.1178342656170983
 20
-42.7084104823778716
 30
0.0
  0
VERTEX
  5
6E4
  8
0
 10
22.1178342656170983
 20
-42.2084104823778787
 30
0.0
  0
VERTEX
  5
6E5
  8
0
 10
22.6178342656170983
 20
-42.2084104823778787
 30
0.0
  0
VERTEX
  5
6E6
  8
0
 10
22.6178342656170983
 20
-42.7084104823778716
 30
0.0
  0
SEQEND
  5
6E7
  8
0
  0
LINE
  5
368
  8
0
 10
23.1178342656170983
 20
-55.9584104823778787
 30
0.0
 11
23.1178342656170983
 21
-40.9584104823778787
 31
0.0
  0
LINE
  5
369
  8
0
 10
23.1178342656170983
 20
-40.9584104823778787
 30
0.0
 11
24.1178342656170983
 21
-40.9584104823778787
 31
0.0
  0
LINE
  5
36A
  8
0
 10
24.1178342656170983
 20
-40.9584104823778787
 30
0.0
 11
24.1178342656170983
 21
-55.9584104823778787
 31
0.0
  0
LINE
  5
36B
  8
0
 10
24.1178342656170983
 20
-55.9584104823778787
 30
0.0
 11
23.1178342656170983
 21
-55.9584104823778787
 31
0.0
  0
POLYLINE
  5
36C
  8
0
 66
     1
 10
0.0
 20
0.0
 30
0.0
 70
     1
  0
VERTEX
  5
6E8
  8
0
 10
23.1178342656170983
 20
-54.7084104823778787
 30
0.0
  0
VERTEX
  5
6E9
  8
0
 10
23.1178342656170983
 20
-54.2084104823778787
 30
0.0
  0
VERTEX
  5
6EA
  8
0
 10
23.6178342656170983
 20
-54.2084104823778787
 30
0.0
  0
VERTEX
  5
6EB
  8
0
 10
23.6178342656170983
 20
-54.7084104823778787
 30
0.0
  0
SEQEND
  5
6EC
  8
0
  0
POLYLINE
  5
36D
  8
0
 66
     1
 10
0.0
 20
0.0
 30
0.0
 70
     1
  0
VERTEX
  5
6ED
  8
0
 10
23.6178342656170983
 20
-48.7084104823778787
 30
0.0
  0
VERTEX
  5
6EE
  8
0
 10
23.6178342656170983
 20
-48.2084104823778787
 30
0.0
  0
VERTEX
  5
6EF
  8
0
 10
24.1178342656170983
 20
-48.2084104823778787
 30
0.0
  0
VERTEX
  5
6F0
  8
0
 10
24.1178342656170983
 20
-48.7084104823778787
 30
0.0
  0
SEQEND
  5
6F1
  8
0
  0
POLYLINE
  5
36E
  8
0
 66
     1
 10
0.0
 20
0.0
 30
0.0
 70
     1
  0
VERTEX
  5
6F2
  8
0
 10
23.1178342656170983
 20
-42.7084104823778716
 30
0.0
  0
VERTEX
  5
6F3
  8
0
 10
23.1178342656170983
 20
-42.2084104823778787
 30
0.0
  0
VERTEX
  5
6F4
  8
0
 10
23.6178342656170983
 20
-42.2084104823778787
 30
0.0
  0
VERTEX
  5
6F5
  8
0
 10
23.6178342656170983
 20
-42.7084104823778716
 30
0.0
  0
SEQEND
  5
6F6
  8
0
  0
LINE
  5
36F
  8
0
 10
24.1178342656170983
 20
-40.9584104823778787
 30
0.0
 11
25.1178342656170983
 21
-40.9584104823778787
 31
0.0
  0
LINE
  5
370
  8
0
 10
25.1178342656170983
 20
-40.9584104823778787
 30
0.0
 11
25.1178342656170983
 21
-55.9584104823778787
 31
0.0
  0
LINE
  5
371
  8
0
 10
25.1178342656170983
 20
-55.9584104823778787
 30
0.0
 11
24.1178342656170983
 21
-55.9584104823778787
 31
0.0
  0
POLYLINE
  5
372
  8
0
 66
     1
 10
0.0
 20
0.0
 30
0.0
 70
     1
  0
VERTEX
  5
6F7
  8
0
 10
24.1178342656170983
 20
-54.7084104823778787
 30
0.0
  0
VERTEX
  5
6F8
  8
0
 10
24.1178342656170983
 20
-54.2084104823778787
 30
0.0
  0
VERTEX
  5
6F9
  8
0
 10
24.6178342656170983
 20
-54.2084104823778787
 30
0.0
  0
VERTEX
  5
6FA
  8
0
 10
24.6178342656170983
 20
-54.7084104823778787
 30
0.0
  0
SEQEND
  5
6FB
  8
0
  0
POLYLINE
  5
373
  8
0
 66
     1
 10
0.0
 20
0.0
 30
0.0
 70
     1
  0
VERTEX
  5
6FC
  8
0
 10
24.6178342656170983
 20
-48.7084104823778787
 30
0.0
  0
VERTEX
  5
6FD
  8
0
 10
24.6178342656170983
 20
-48.2084104823778787
 30
0.0
  0
VERTEX
  5
6FE
  8
0
 10
25.1178342656170983
 20
-48.2084104823778787
 30
0.0
  0
VERTEX
  5
6FF
  8
0
 10
25.1178342656170983
 20
-48.7084104823778787
 30
0.0
  0
SEQEND
  5
700
  8
0
  0
POLYLINE
  5
374
  8
0
 66
     1
 10
0.0
 20
0.0
 30
0.0
 70
     1
  0
VERTEX
  5
701
  8
0
 10
24.1178342656170983
 20
-42.7084104823778716
 30
0.0
  0
VERTEX
  5
702
  8
0
 10
24.1178342656170983
 20
-42.2084104823778787
 30
0.0
  0
VERTEX
  5
703
  8
0
 10
24.6178342656170983
 20
-42.2084104823778787
 30
0.0
  0
VERTEX
  5
704
  8
0
 10
24.6178342656170983
 20
-42.7084104823778716
 30
0.0
  0
SEQEND
  5
705
  8
0
  0
LINE
  5
375
  8
0
 10
25.1178342656170983
 20
-55.9584104823778787
 30
0.0
 11
25.1178342656170983
 21
-40.9584104823778787
 31
0.0
  0
LINE
  5
376
  8
0
 10
25.1178342656170983
 20
-40.9584104823778787
 30
0.0
 11
26.1178342656170983
 21
-40.9584104823778787
 31
0.0
  0
LINE
  5
377
  8
0
 10
26.1178342656170983
 20
-40.9584104823778787
 30
0.0
 11
26.1178342656170983
 21
-55.9584104823778787
 31
0.0
  0
LINE
  5
378
  8
0
 10
26.1178342656170983
 20
-55.9584104823778787
 30
0.0
 11
25.1178342656170983
 21
-55.9584104823778787
 31
0.0
  0
POLYLINE
  5
379
  8
0
 66
     1
 10
0.0
 20
0.0
 30
0.0
 70
     1
  0
VERTEX
  5
706
  8
0
 10
25.1178342656170983
 20
-54.7084104823778787
 30
0.0
  0
VERTEX
  5
707
  8
0
 10
25.1178342656170983
 20
-54.2084104823778787
 30
0.0
  0
VERTEX
  5
708
  8
0
 10
25.6178342656170983
 20
-54.2084104823778787
 30
0.0
  0
VERTEX
  5
709
  8
0
 10
25.6178342656170983
 20
-54.7084104823778787
 30
0.0
  0
SEQEND
  5
70A
  8
0
  0
POLYLINE
  5
37A
  8
0
 66
     1
 10
0.0
 20
0.0
 30
0.0
 70
     1
  0
VERTEX
  5
70B
  8
0
 10
25.6178342656170983
 20
-48.7084104823778787
 30
0.0
  0
VERTEX
  5
70C
  8
0
 10
25.6178342656170983
 20
-48.2084104823778787
 30
0.0
  0
VERTEX
  5
70D
  8
0
 10
26.1178342656170983
 20
-48.2084104823778787
 30
0.0
  0
VERTEX
  5
70E
  8
0
 10
26.1178342656170983
 20
-48.7084104823778787
 30
0.0
  0
SEQEND
  5
70F
  8
0
  0
POLYLINE
  5
37B
  8
0
 66
     1
 10
0.0
 20
0.0
 30
0.0
 70
     1
  0
VERTEX
  5
710
  8
0
 10
25.1178342656170983
 20
-42.7084104823778716
 30
0.0
  0
VERTEX
  5
711
  8
0
 10
25.1178342656170983
 20
-42.2084104823778787
 30
0.0
  0
VERTEX
  5
712
  8
0
 10
25.6178342656170983
 20
-42.2084104823778787
 30
0.0
  0
VERTEX
  5
713
  8
0
 10
25.6178342656170983
 20
-42.7084104823778716
 30
0.0
  0
SEQEND
  5
714
  8
0
  0
POLYLINE
  5
37C
  8
0
 62
     9
 66
     1
 10
0.0
 20
0.0
 30
0.0
 70
     1
  0
VERTEX
  5
715
  8
0
 62
     9
 10
52.2435655626225426
 20
-4.7023213559374799
 30
0.0
  0
VERTEX
  5
716
  8
0
 62
     9
 10
52.243565562622571
 20
10.2976786440625094
 30
0.0
  0
VERTEX
  5
717
  8
0
 62
     9
 10
51.943565562622581
 20
10.2976786440625094
 30
0.0
  0
VERTEX
  5
718
  8
0
 62
     9
 10
51.9435655626225312
 20
-4.7023213559374843
 30
0.0
  0
SEQEND
  5
719
  8
0
 62
     9
  0
POLYLINE
  5
37D
  8
0
 62
     9
 66
     1
 10
0.0
 20
0.0
 30
0.0
 70
     1
  0
VERTEX
  5
71A
  8
0
 62
     9
 10
56.9815875628170474
 20
7.388975286066966
 30
0.0
  0
VERTEX
  5
71B
  8
0
 62
     9
 10
43.9912065060504816
 20
14.8889752860670193
 30
0.0
  0
VERTEX
  5
71C
  8
0
 62
     9
 10
43.8412065060504901
 20
14.6291676649316695
 30
0.0
  0
VERTEX
  5
71D
  8
0
 62
     9
 10
56.8315875628170488
 20
7.1291676649316571
 30
0.0
  0
SEQEND
  5
71E
  8
0
 62
     9
  0
POLYLINE
  5
37E
  8
0
 62
     9
 66
     1
 10
0.0
 20
0.0
 30
0.0
 70
     1
  0
VERTEX
  5
71F
  8
0
 62
     9
 10
64.7839466193891838
 20
12.2400795492067793
 30
0.0
  0
VERTEX
  5
720
  8
0
 62
     9
 10
51.7935655626225611
 20
4.74007954920679
 30
0.0
  0
VERTEX
  5
721
  8
0
 62
     9
 10
51.9435655626225525
 20
4.4802719280714571
 30
0.0
  0
VERTEX
  5
722
  8
0
 62
     9
 10
64.933946619389161
 20
11.9802719280714403
 30
0.0
  0
SEQEND
  5
723
  8
0
 62
     9
  0
LINE
  5
37F
  8
OUTLINE
 10
51.199795300872708
 20
4.8266820895852334
 30
0.0
 11
51.199795300872708
 21
4.3266820895852334
 31
0.0
  0
LINE
  5
380
  8
OUTLINE
 10
46.1514628736056878
 20
4.5766820895852307
 30
0.0
 11
54.3680782118089994
 21
4.5766820895852334
 31
0.0
  0
LINE
  5
381
  8
OUTLINE
 10
51.1997953008727222
 20
-1.173317910414766
 30
0.0
 11
51.1997953008727222
 21
-1.673317910414766
 31
0.0
  0
LINE
  5
382
  8
OUTLINE
 10
46.151462873605702
 20
-1.423317910414768
 30
0.0
 11
54.3680782118090065
 21
-1.423317910414766
 31
0.0
  0
LINE
  5
384
  8
0
 10
35.680917491265042
 20
15.4115498235496506
 30
0.0
 11
36.6809174912650278
 21
15.4115498235496506
 31
0.0
  0
LINE
  5
385
  8
0
 10
35.680917491265042
 20
21.4115498235496489
 30
0.0
 11
36.680917491265042
 21
21.4115498235496489
 31
0.0
  0
LINE
  5
386
  8
0
 10
35.680917491265042
 20
9.4115498235496489
 30
0.0
 11
36.6809174912650278
 21
9.4115498235496489
 31
0.0
  0
LINE
  5
38A
  8
OUTLINE
 10
36.180917491265042
 20
9.6615498235496489
 30
0.0
 11
36.180917491265042
 21
9.1615498235496489
 31
0.0
  0
LINE
  5
38B
  8
OUTLINE
 10
31.1325850639980217
 20
9.4115498235496471
 30
0.0
 11
39.3492004022013191
 21
9.4115498235496489
 31
0.0
  0
LINE
  5
38C
  8
OUTLINE
 10
36.180917491265042
 20
15.6615498235496506
 30
0.0
 11
36.180917491265042
 21
15.1615498235496506
 31
0.0
  0
LINE
  5
38D
  8
OUTLINE
 10
31.1325850639980217
 20
15.4115498235496506
 30
0.0
 11
39.3492004022013191
 21
15.4115498235496506
 31
0.0
  0
LINE
  5
38E
  8
OUTLINE
 10
36.180917491265042
 20
21.6615498235496489
 30
0.0
 11
36.180917491265042
 21
21.1615498235496489
 31
0.0
  0
LINE
  5
38F
  8
OUTLINE
 10
31.1325850639980217
 20
21.4115498235496489
 30
0.0
 11
39.3492004022013333
 21
21.4115498235496489
 31
0.0
  0
INSERT
  5
3A8
  8
0
  2
124
 10
-17.1888135811733918
 20
7.3728236568166601
 30
0.0
  0
INSERT
  5
3A9
  8
0
  2
124
 10
119.5884041829187936
 20
7.3728236568166601
 30
0.0
 41
-1.0
  0
INSERT
  5
3AA
  8
0
  2
124
 10
-18.1888135811733918
 20
1.3728236568166601
 30
0.0
  0
INSERT
  5
3AB
  8
0
  2
124
 10
-19.1888135811733918
 20
-4.627176343183339
 30
0.0
  0
INSERT
  5
3AC
  8
0
  2
124
 10
119.5884041829187936
 20
7.3728236568166601
 30
0.0
 41
-1.0
  0
INSERT
  5
3AD
  8
0
  2
124
 10
120.5884041829187936
 20
1.3728236568166601
 30
0.0
 41
-1.0
  0
INSERT
  5
3AE
  8
0
  2
124
 10
121.5884041829187936
 20
-4.627176343183339
 30
0.0
 41
-1.0
  0
LINE
  5
3AF
  8
0
 10
73.9103409000325229
 20
-44.4872036383297811
 30
0.0
 11
73.9103409000325371
 21
-23.4872036383297917
 31
0.0
  0
LINE
  5
3B0
  8
0
 10
74.21034090003252
 20
-23.4872036383297917
 30
0.0
 11
74.21034090003252
 21
-44.4872036383297811
 31
0.0
  0
LINE
  5
3B1
  8
0
 10
74.21034090003252
 20
-44.4872036383297811
 30
0.0
 11
73.9103409000325229
 21
-44.4872036383297811
 31
0.0
  0
POLYLINE
  5
3B2
  8
0
 66
     1
 10
0.0
 20
0.0
 30
0.0
  0
VERTEX
  5
72A
  8
0
 10
73.9103409000325229
 20
-42.7372036383297811
 30
0.0
  0
VERTEX
  5
72B
  8
0
 10
74.21034090003252
 20
-42.7372036383297811
 30
0.0
  0
VERTEX
  5
72C
  8
0
 10
74.21034090003252
 20
-43.2372036383297811
 30
0.0
  0
VERTEX
  5
72D
  8
0
 10
73.9103409000325229
 20
-43.2372036383297811
 30
0.0
  0
SEQEND
  5
72E
  8
0
  0
LINE
  5
3B3
  8
OUTLINE
 10
69.0120084727655012
 20
-24.9872036383297917
 30
0.0
 11
77.2286238109688128
 21
-24.9872036383297917
 31
0.0
  0
LINE
  5
3B4
  8
OUTLINE
 10
69.0120084727655012
 20
-30.9872036383297917
 30
0.0
 11
77.2286238109687986
 21
-30.9872036383297917
 31
0.0
  0
INSERT
  5
3B5
  8
0
  2
124
 10
5.6717320179864137
 20
-28.1910620710983615
 30
0.0
  0
INSERT
  5
3B6
  8
0
  2
124
 10
142.4489497820786141
 20
-28.1910620710983615
 30
0.0
 41
-1.0
  0
INSERT
  5
3B7
  8
0
  2
124
 10
4.6717320179864137
 20
-34.1910620710983579
 30
0.0
  0
INSERT
  5
3B8
  8
0
  2
124
 10
3.6717320179864141
 20
-40.1910620710983508
 30
0.0
  0
INSERT
  5
3B9
  8
0
  2
124
 10
142.4489497820786141
 20
-28.1910620710983615
 30
0.0
 41
-1.0
  0
INSERT
  5
3BA
  8
0
  2
124
 10
143.4489497820786141
 20
-34.1910620710983579
 30
0.0
 41
-1.0
  0
INSERT
  5
3BB
  8
0
  2
124
 10
144.4489497820786141
 20
-40.1910620710983508
 30
0.0
 41
-1.0
  0
POLYLINE
  5
3C4
  8
OUTLINE
 62
   240
 66
     1
 10
0.0
 20
0.0
 30
0.0
 70
     1
  0
VERTEX
  5
72F
  8
OUTLINE
 62
   240
 10
77.21034090003252
 20
-36.8372036383297896
 30
0.0
  0
VERTEX
  5
730
  8
OUTLINE
 62
   240
 10
70.9103409000325087
 20
-36.8372036383297896
 30
0.0
  0
VERTEX
  5
731
  8
OUTLINE
 62
   240
 10
70.9103409000325087
 20
-37.1372036383297868
 30
0.0
  0
VERTEX
  5
732
  8
OUTLINE
 62
   240
 10
77.21034090003252
 20
-37.1372036383297868
 30
0.0
  0
SEQEND
  5
733
  8
OUTLINE
 62
   240
  0
POLYLINE
  5
3C5
  8
OUTLINE
 62
   240
 66
     1
 10
0.0
 20
0.0
 30
0.0
 70
     1
  0
VERTEX
  5
734
  8
OUTLINE
 62
   240
 10
78.2103409000325058
 20
-42.8372036383297896
 30
0.0
  0
VERTEX
  5
735
  8
OUTLINE
 62
   240
 10
69.9103409000325229
 20
-42.8372036383297896
 30
0.0
  0
VERTEX
  5
736
  8
OUTLINE
 62
   240
 10
69.9103409000325229
 20
-43.1372036383297797
 30
0.0
  0
VERTEX
  5
737
  8
OUTLINE
 62
   240
 10
78.2103409000325058
 20
-43.1372036383297797
 30
0.0
  0
SEQEND
  5
738
  8
OUTLINE
 62
   240
  0
POLYLINE
  5
3C6
  8
OUTLINE
 62
   240
 66
     1
 10
0.0
 20
0.0
 30
0.0
 70
     1
  0
VERTEX
  5
739
  8
OUTLINE
 62
   240
 10
79.2103409000325058
 20
-48.8372036383297896
 30
0.0
  0
VERTEX
  5
73A
  8
OUTLINE
 62
   240
 10
68.9103409000325229
 20
-48.8372036383297896
 30
0.0
  0
VERTEX
  5
73B
  8
OUTLINE
 62
   240
 10
68.9103409000325229
 20
-49.1372036383297868
 30
0.0
  0
VERTEX
  5
73C
  8
OUTLINE
 62
   240
 10
79.2103409000325058
 20
-49.1372036383297868
 30
0.0
  0
SEQEND
  5
73D
  8
OUTLINE
 62
   240
  0
LINE
  5
3C8
  8
0
 62
     9
 10
76.2103409000325058
 20
-67.6696578258157615
 30
0.0
 11
76.2103409000325058
 21
-18.2410889398870992
 31
0.0
  0
LINE
  5
3CA
  8
0
 62
     9
 10
77.2103409000325058
 20
-67.6696578258157615
 30
0.0
 11
77.2103409000325058
 21
-18.2410889398870992
 31
0.0
  0
LINE
  5
3CB
  8
0
 62
     9
 10
78.2103409000325058
 20
-67.6696578258157615
 30
0.0
 11
78.2103409000325058
 21
-18.2410889398870992
 31
0.0
  0
LINE
  5
3CC
  8
0
 62
     9
 10
71.9103409000325229
 20
-67.6696578258157615
 30
0.0
 11
71.9103409000325229
 21
-18.2410889398871099
 31
0.0
  0
LINE
  5
3CD
  8
0
 62
     9
 10
70.9103409000325229
 20
-67.6696578258157615
 30
0.0
 11
70.9103409000325229
 21
-18.2410889398870992
 31
0.0
  0
LINE
  5
3CE
  8
0
 62
     9
 10
69.9103409000325229
 20
-67.6696578258157615
 30
0.0
 11
69.9103409000325229
 21
-18.2410889398870992
 31
0.0
  0
LINE
  5
3CF
  8
0
 62
     9
 10
68.9103409000325229
 20
-67.6696578258157615
 30
0.0
 11
68.9103409000325229
 21
-18.2410889398870992
 31
0.0
  0
LINE
  5
3D0
  8
0
 62
     9
 10
79.2103409000325058
 20
-67.6696578258157615
 30
0.0
 11
79.2103409000325058
 21
-18.2410889398870992
 31
0.0
  0
POLYLINE
  5
3D1
  8
OUTLINE
 62
   240
 66
     1
 10
0.0
 20
0.0
 30
0.0
 70
     1
  0
VERTEX
  5
73E
  8
OUTLINE
 62
   240
 10
79.2103409000325058
 20
-54.8372036383297896
 30
0.0
  0
VERTEX
  5
73F
  8
OUTLINE
 62
   240
 10
68.9103409000325229
 20
-54.8372036383297896
 30
0.0
  0
VERTEX
  5
740
  8
OUTLINE
 62
   240
 10
68.9103409000325229
 20
-55.1372036383297868
 30
0.0
  0
VERTEX
  5
741
  8
OUTLINE
 62
   240
 10
79.2103409000325058
 20
-55.1372036383297868
 30
0.0
  0
SEQEND
  5
742
  8
OUTLINE
 62
   240
  0
POLYLINE
  5
3D2
  8
OUTLINE
 62
   240
 66
     1
 10
0.0
 20
0.0
 30
0.0
 70
     1
  0
VERTEX
  5
743
  8
OUTLINE
 62
   240
 10
79.2103409000325058
 20
-60.8372036383297896
 30
0.0
  0
VERTEX
  5
744
  8
OUTLINE
 62
   240
 10
68.9103409000325229
 20
-60.8372036383297896
 30
0.0
  0
VERTEX
  5
745
  8
OUTLINE
 62
   240
 10
68.9103409000325229
 20
-61.4372036383297768
 30
0.0
  0
VERTEX
  5
746
  8
OUTLINE
 62
   240
 10
79.2103409000325058
 20
-61.4372036383297768
 30
0.0
  0
SEQEND
  5
747
  8
OUTLINE
 62
   240
  0
POLYLINE
  5
3D3
  8
OUTLINE
 62
   240
 66
     1
 10
0.0
 20
0.0
 30
0.0
 70
     1
  0
VERTEX
  5
748
  8
OUTLINE
 62
   240
 10
79.2103409000325058
 20
-63.0443631551663586
 30
0.0
  0
VERTEX
  5
749
  8
OUTLINE
 62
   240
 10
68.9103409000325229
 20
-63.0443631551663586
 30
0.0
  0
VERTEX
  5
74A
  8
OUTLINE
 62
   240
 10
68.9103409000325229
 20
-63.8443631551663628
 30
0.0
  0
VERTEX
  5
74B
  8
OUTLINE
 62
   240
 10
79.2103409000325058
 20
-63.8443631551663628
 30
0.0
  0
SEQEND
  5
74C
  8
OUTLINE
 62
   240
  0
LINE
  5
3D7
  8
OUTLINE
 10
70.21034090003252
 20
-63.5443631551663586
 30
0.0
 11
69.9103409000325229
 21
-63.5443631551663586
 31
0.0
  0
POLYLINE
  5
3DA
  8
OUTLINE
 66
     1
 10
0.0
 20
0.0
 30
0.0
 70
     1
  0
VERTEX
  5
74D
  8
OUTLINE
 10
69.9103409000325229
 20
-63.5443631551663586
 30
0.0
  0
VERTEX
  5
74E
  8
OUTLINE
 10
70.21034090003252
 20
-63.5443631551663586
 30
0.0
  0
VERTEX
  5
74F
  8
OUTLINE
 10
70.21034090003252
 20
-63.8443631551663628
 30
0.0
  0
VERTEX
  5
750
  8
OUTLINE
 10
69.9103409000325229
 20
-63.8443631551663628
 30
0.0
  0
SEQEND
  5
751
  8
OUTLINE
  0
POLYLINE
  5
3DB
  8
OUTLINE
 66
     1
 10
0.0
 20
0.0
 30
0.0
 70
     1
  0
VERTEX
  5
752
  8
OUTLINE
 10
77.9103409000324945
 20
-63.5443631551663586
 30
0.0
  0
VERTEX
  5
753
  8
OUTLINE
 10
78.2103409000325058
 20
-63.5443631551663586
 30
0.0
  0
VERTEX
  5
754
  8
OUTLINE
 10
78.2103409000325058
 20
-63.8443631551663628
 30
0.0
  0
VERTEX
  5
755
  8
OUTLINE
 10
77.9103409000324945
 20
-63.8443631551663628
 30
0.0
  0
SEQEND
  5
756
  8
OUTLINE
  0
POLYLINE
  5
3DC
  8
OUTLINE
 62
   240
 66
     1
 10
0.0
 20
0.0
 30
0.0
 70
     1
  0
VERTEX
  5
757
  8
OUTLINE
 62
   240
 10
93.1251162287464069
 20
-36.8372036383297896
 30
0.0
  0
VERTEX
  5
758
  8
OUTLINE
 62
   240
 10
86.8251162287463956
 20
-36.8372036383297896
 30
0.0
  0
VERTEX
  5
759
  8
OUTLINE
 62
   240
 10
86.8251162287463956
 20
-37.1372036383297868
 30
0.0
  0
VERTEX
  5
75A
  8
OUTLINE
 62
   240
 10
93.1251162287464069
 20
-37.1372036383297868
 30
0.0
  0
SEQEND
  5
75B
  8
OUTLINE
 62
   240
  0
POLYLINE
  5
3DD
  8
OUTLINE
 62
   240
 66
     1
 10
0.0
 20
0.0
 30
0.0
 70
     1
  0
VERTEX
  5
75C
  8
OUTLINE
 62
   240
 10
94.1251162287463927
 20
-42.8372036383297896
 30
0.0
  0
VERTEX
  5
75D
  8
OUTLINE
 62
   240
 10
85.8251162287463956
 20
-42.8372036383297896
 30
0.0
  0
VERTEX
  5
75E
  8
OUTLINE
 62
   240
 10
85.8251162287463956
 20
-43.1372036383297797
 30
0.0
  0
VERTEX
  5
75F
  8
OUTLINE
 62
   240
 10
94.1251162287463927
 20
-43.1372036383297797
 30
0.0
  0
SEQEND
  5
760
  8
OUTLINE
 62
   240
  0
POLYLINE
  5
3DE
  8
OUTLINE
 62
   240
 66
     1
 10
0.0
 20
0.0
 30
0.0
 70
     1
  0
VERTEX
  5
761
  8
OUTLINE
 62
   240
 10
95.1251162287463785
 20
-48.8372036383297896
 30
0.0
  0
VERTEX
  5
762
  8
OUTLINE
 62
   240
 10
84.8251162287464098
 20
-48.8372036383297896
 30
0.0
  0
VERTEX
  5
763
  8
OUTLINE
 62
   240
 10
84.8251162287464098
 20
-49.1372036383297868
 30
0.0
  0
VERTEX
  5
764
  8
OUTLINE
 62
   240
 10
95.1251162287463785
 20
-49.1372036383297868
 30
0.0
  0
SEQEND
  5
765
  8
OUTLINE
 62
   240
  0
POLYLINE
  5
3DF
  8
OUTLINE
 62
   240
 66
     1
 10
0.0
 20
0.0
 30
0.0
 70
     1
  0
VERTEX
  5
766
  8
OUTLINE
 62
   240
 10
95.1251162287463785
 20
-54.8372036383297896
 30
0.0
  0
VERTEX
  5
767
  8
OUTLINE
 62
   240
 10
84.8251162287464098
 20
-54.8372036383297896
 30
0.0
  0
VERTEX
  5
768
  8
OUTLINE
 62
   240
 10
84.8251162287464098
 20
-55.1372036383297868
 30
0.0
  0
VERTEX
  5
769
  8
OUTLINE
 62
   240
 10
95.1251162287463785
 20
-55.1372036383297868
 30
0.0
  0
SEQEND
  5
76A
  8
OUTLINE
 62
   240
  0
POLYLINE
  5
3E0
  8
OUTLINE
 62
   240
 66
     1
 10
0.0
 20
0.0
 30
0.0
 70
     1
  0
VERTEX
  5
76B
  8
OUTLINE
 62
   240
 10
95.1251162287463785
 20
-63.0443631551663515
 30
0.0
  0
VERTEX
  5
76C
  8
OUTLINE
 62
   240
 10
84.8251162287464098
 20
-63.0443631551663515
 30
0.0
  0
VERTEX
  5
76D
  8
OUTLINE
 62
   240
 10
84.8251162287464098
 20
-63.8443631551663486
 30
0.0
  0
VERTEX
  5
76E
  8
OUTLINE
 62
   240
 10
95.1251162287463785
 20
-63.8443631551663486
 30
0.0
  0
SEQEND
  5
76F
  8
OUTLINE
 62
   240
  0
LINE
  5
3E1
  8
OUTLINE
 10
86.1251162287464069
 20
-63.5443631551663586
 30
0.0
 11
85.8251162287463956
 21
-63.5443631551663586
 31
0.0
  0
POLYLINE
  5
3E2
  8
OUTLINE
 66
     1
 10
0.0
 20
0.0
 30
0.0
 70
     1
  0
VERTEX
  5
770
  8
OUTLINE
 10
85.8251162287463956
 20
-63.5443631551663586
 30
0.0
  0
VERTEX
  5
771
  8
OUTLINE
 10
86.1251162287464069
 20
-63.5443631551663586
 30
0.0
  0
VERTEX
  5
772
  8
OUTLINE
 10
86.1251162287464069
 20
-63.8443631551663486
 30
0.0
  0
VERTEX
  5
773
  8
OUTLINE
 10
85.8251162287463956
 20
-63.8443631551663486
 30
0.0
  0
SEQEND
  5
774
  8
OUTLINE
  0
POLYLINE
  5
3E3
  8
OUTLINE
 66
     1
 10
0.0
 20
0.0
 30
0.0
 70
     1
  0
VERTEX
  5
775
  8
OUTLINE
 10
93.8251162287463956
 20
-63.5443631551663586
 30
0.0
  0
VERTEX
  5
776
  8
OUTLINE
 10
94.1251162287463927
 20
-63.5443631551663586
 30
0.0
  0
VERTEX
  5
777
  8
OUTLINE
 10
94.1251162287463927
 20
-63.8443631551663486
 30
0.0
  0
VERTEX
  5
778
  8
OUTLINE
 10
93.8251162287463956
 20
-63.8443631551663486
 30
0.0
  0
SEQEND
  5
779
  8
OUTLINE
  0
POLYLINE
  5
3E4
  8
OUTLINE
 62
   240
 66
     1
 10
0.0
 20
0.0
 30
0.0
 70
     1
  0
VERTEX
  5
77A
  8
OUTLINE
 62
   240
 10
112.6559943799074972
 20
-58.7544095521444092
 30
0.0
  0
VERTEX
  5
77B
  8
OUTLINE
 62
   240
 10
106.3559943799075
 20
-58.7544095521444092
 30
0.0
  0
VERTEX
  5
77C
  8
OUTLINE
 62
   240
 10
106.3559943799075
 20
-59.0544095521444135
 30
0.0
  0
VERTEX
  5
77D
  8
OUTLINE
 62
   240
 10
112.6559943799074972
 20
-59.0544095521444135
 30
0.0
  0
SEQEND
  5
77E
  8
OUTLINE
 62
   240
  0
POLYLINE
  5
3E5
  8
OUTLINE
 62
   240
 66
     1
 10
0.0
 20
0.0
 30
0.0
 70
     1
  0
VERTEX
  5
77F
  8
OUTLINE
 62
   240
 10
114.6559943799074972
 20
-59.0544095521444135
 30
0.0
  0
VERTEX
  5
780
  8
OUTLINE
 62
   240
 10
106.3559943799075
 20
-59.0544095521444135
 30
0.0
  0
VERTEX
  5
781
  8
OUTLINE
 62
   240
 10
106.3559943799075
 20
-59.3544095521444035
 30
0.0
  0
VERTEX
  5
782
  8
OUTLINE
 62
   240
 10
114.6559943799074972
 20
-59.3544095521444035
 30
0.0
  0
SEQEND
  5
783
  8
OUTLINE
 62
   240
  0
POLYLINE
  5
3E6
  8
OUTLINE
 62
   240
 66
     1
 10
0.0
 20
0.0
 30
0.0
 70
     1
  0
VERTEX
  5
784
  8
OUTLINE
 62
   240
 10
116.6559943799074972
 20
-59.3544095521444035
 30
0.0
  0
VERTEX
  5
785
  8
OUTLINE
 62
   240
 10
106.3559943799075
 20
-59.3544095521444035
 30
0.0
  0
VERTEX
  5
786
  8
OUTLINE
 62
   240
 10
106.3559943799075
 20
-59.6544095521444007
 30
0.0
  0
VERTEX
  5
787
  8
OUTLINE
 62
   240
 10
116.6559943799074972
 20
-59.6544095521444007
 30
0.0
  0
SEQEND
  5
788
  8
OUTLINE
 62
   240
  0
POLYLINE
  5
3E7
  8
OUTLINE
 62
   240
 66
     1
 10
0.0
 20
0.0
 30
0.0
 70
     1
  0
VERTEX
  5
789
  8
OUTLINE
 62
   240
 10
116.6559943799074972
 20
-59.6544095521444007
 30
0.0
  0
VERTEX
  5
78A
  8
OUTLINE
 62
   240
 10
106.3559943799075
 20
-59.6544095521444007
 30
0.0
  0
VERTEX
  5
78B
  8
OUTLINE
 62
   240
 10
106.3559943799075
 20
-59.9544095521443978
 30
0.0
  0
VERTEX
  5
78C
  8
OUTLINE
 62
   240
 10
116.6559943799074972
 20
-59.9544095521443978
 30
0.0
  0
SEQEND
  5
78D
  8
OUTLINE
 62
   240
  0
POLYLINE
  5
3EC
  8
OUTLINE
 62
   240
 66
     1
 10
0.0
 20
0.0
 30
0.0
 70
     1
  0
VERTEX
  5
78E
  8
OUTLINE
 62
   240
 10
116.6559943799074972
 20
-59.6544095521444007
 30
0.0
  0
VERTEX
  5
78F
  8
OUTLINE
 62
   240
 10
122.9559943799073949
 20
-59.6544095521444007
 30
0.0
  0
VERTEX
  5
790
  8
OUTLINE
 62
   240
 10
122.9559943799073949
 20
-59.3544095521444035
 30
0.0
  0
VERTEX
  5
791
  8
OUTLINE
 62
   240
 10
116.6559943799074972
 20
-59.3544095521444035
 30
0.0
  0
SEQEND
  5
792
  8
OUTLINE
 62
   240
  0
POLYLINE
  5
3ED
  8
OUTLINE
 62
   240
 66
     1
 10
0.0
 20
0.0
 30
0.0
 70
     1
  0
VERTEX
  5
793
  8
OUTLINE
 62
   240
 10
114.6559943799074972
 20
-59.3544095521444035
 30
0.0
  0
VERTEX
  5
794
  8
OUTLINE
 62
   240
 10
122.9559943799073949
 20
-59.3544095521444035
 30
0.0
  0
VERTEX
  5
795
  8
OUTLINE
 62
   240
 10
122.9559943799073949
 20
-59.0544095521444135
 30
0.0
  0
VERTEX
  5
796
  8
OUTLINE
 62
   240
 10
114.6559943799074972
 20
-59.0544095521444135
 30
0.0
  0
SEQEND
  5
797
  8
OUTLINE
 62
   240
  0
POLYLINE
  5
3EE
  8
OUTLINE
 62
   240
 66
     1
 10
0.0
 20
0.0
 30
0.0
 70
     1
  0
VERTEX
  5
798
  8
OUTLINE
 62
   240
 10
112.6559943799074972
 20
-59.0544095521444135
 30
0.0
  0
VERTEX
  5
799
  8
OUTLINE
 62
   240
 10
122.9559943799073949
 20
-59.0544095521444135
 30
0.0
  0
VERTEX
  5
79A
  8
OUTLINE
 62
   240
 10
122.9559943799073949
 20
-58.7544095521444092
 30
0.0
  0
VERTEX
  5
79B
  8
OUTLINE
 62
   240
 10
112.6559943799074972
 20
-58.7544095521444092
 30
0.0
  0
SEQEND
  5
79C
  8
OUTLINE
 62
   240
  0
POLYLINE
  5
3EF
  8
OUTLINE
 62
   240
 66
     1
 10
0.0
 20
0.0
 30
0.0
 70
     1
  0
VERTEX
  5
79D
  8
OUTLINE
 62
   240
 10
112.6559943799074972
 20
-58.7544095521444092
 30
0.0
  0
VERTEX
  5
79E
  8
OUTLINE
 62
   240
 10
122.9559943799073949
 20
-58.7544095521444092
 30
0.0
  0
VERTEX
  5
79F
  8
OUTLINE
 62
   240
 10
122.9559943799073949
 20
-58.454409552144412
 30
0.0
  0
VERTEX
  5
7A0
  8
OUTLINE
 62
   240
 10
112.6559943799074972
 20
-58.454409552144412
 30
0.0
  0
SEQEND
  5
7A1
  8
OUTLINE
 62
   240
  0
LINE
  5
445
  8
0
 10
4.4178342656170946
 20
-58.0584104823778802
 30
0.0
 11
4.1178342656170983
 21
-58.0584104823778802
 31
0.0
  0
LINE
  5
44C
  8
0
 10
12.1178342656170805
 20
-58.8584104823778773
 30
0.0
 11
12.4178342656170795
 21
-58.8584104823778773
 31
0.0
  0
LINE
  5
44D
  8
0
 10
12.4178342656170795
 20
-58.8584104823778773
 30
0.0
 11
12.4178342656170795
 21
-59.1584104823778674
 31
0.0
  0
LINE
  5
44F
  8
0
 10
12.1178342656170805
 20
-59.1584104823778674
 30
0.0
 11
12.1178342656170805
 21
-58.8584104823778773
 31
0.0
  0
LINE
  5
450
  8
0
 10
4.1178342656170983
 20
-58.8584104823778773
 30
0.0
 11
4.4178342656170946
 21
-58.8584104823778773
 31
0.0
  0
LINE
  5
451
  8
0
 10
4.4178342656170946
 20
-58.8584104823778773
 30
0.0
 11
4.4178342656170946
 21
-59.1584104823778674
 31
0.0
  0
LINE
  5
453
  8
0
 10
4.1178342656170983
 20
-59.1584104823778674
 30
0.0
 11
4.1178342656170983
 21
-58.8584104823778773
 31
0.0
  0
LINE
  5
454
  8
0
 10
13.4178342656170795
 20
-58.3584104823778773
 30
0.0
 11
3.1178342656170979
 21
-58.3584104823778773
 31
0.0
  0
LINE
  5
455
  8
0
 10
3.1178342656170979
 20
-55.9584104823778787
 30
0.0
 11
3.1178342656170979
 21
-59.1584104823778674
 31
0.0
  0
LINE
  5
456
  8
0
 10
3.1178342656170979
 20
-59.1584104823778674
 30
0.0
 11
13.4178342656170795
 21
-59.1584104823778674
 31
0.0
  0
LINE
  5
457
  8
0
 10
13.4178342656170795
 20
-59.1584104823778674
 30
0.0
 11
13.4178342656170795
 21
-55.9584104823778787
 31
0.0
  0
LINE
  5
458
  8
0
 10
12.1178342656170805
 20
-58.0584104823778802
 30
0.0
 11
12.4178342656170795
 21
-58.0584104823778802
 31
0.0
  0
LINE
  5
459
  8
0
 10
12.4178342656170795
 20
-58.0584104823778802
 30
0.0
 11
12.4178342656170795
 21
-58.3584104823778773
 31
0.0
  0
LINE
  5
45B
  8
0
 10
12.1178342656170805
 20
-58.3584104823778773
 30
0.0
 11
12.1178342656170805
 21
-58.0584104823778802
 31
0.0
  0
LINE
  5
45D
  8
0
 10
4.4178342656170946
 20
-58.0584104823778802
 30
0.0
 11
4.4178342656170946
 21
-58.3584104823778773
 31
0.0
  0
LINE
  5
45F
  8
0
 10
4.1178342656170983
 20
-58.3584104823778773
 30
0.0
 11
4.1178342656170983
 21
-58.0584104823778802
 31
0.0
  0
LINE
  5
460
  8
0
 10
13.4178342656170795
 20
-57.5584104823778802
 30
0.0
 11
3.1178342656170979
 21
-57.5584104823778802
 31
0.0
  0
LINE
  5
464
  8
0
 10
12.1178342656170805
 20
-57.2584104823778688
 30
0.0
 11
12.4178342656170795
 21
-57.2584104823778688
 31
0.0
  0
LINE
  5
465
  8
0
 10
12.4178342656170795
 20
-57.2584104823778688
 30
0.0
 11
12.4178342656170795
 21
-57.5584104823778802
 31
0.0
  0
LINE
  5
467
  8
0
 10
12.1178342656170805
 20
-57.5584104823778802
 30
0.0
 11
12.1178342656170805
 21
-57.2584104823778688
 31
0.0
  0
LINE
  5
468
  8
0
 10
4.1178342656170983
 20
-57.2584104823778688
 30
0.0
 11
4.4178342656170946
 21
-57.2584104823778688
 31
0.0
  0
LINE
  5
469
  8
0
 10
4.4178342656170946
 20
-57.2584104823778688
 30
0.0
 11
4.4178342656170946
 21
-57.5584104823778802
 31
0.0
  0
LINE
  5
46B
  8
0
 10
4.1178342656170983
 20
-57.5584104823778802
 30
0.0
 11
4.1178342656170983
 21
-57.2584104823778688
 31
0.0
  0
LINE
  5
46C
  8
0
 10
13.4178342656170795
 20
-56.758410482377883
 30
0.0
 11
3.1178342656170979
 21
-56.758410482377883
 31
0.0
  0
LINE
  5
470
  8
0
 10
12.1178342656170805
 20
-56.4584104823778716
 30
0.0
 11
12.4178342656170795
 21
-56.4584104823778716
 31
0.0
  0
LINE
  5
471
  8
0
 10
12.4178342656170795
 20
-56.4584104823778716
 30
0.0
 11
12.4178342656170795
 21
-56.758410482377883
 31
0.0
  0
LINE
  5
473
  8
0
 10
12.1178342656170805
 20
-56.758410482377883
 30
0.0
 11
12.1178342656170805
 21
-56.4584104823778716
 31
0.0
  0
LINE
  5
474
  8
0
 10
4.1178342656170983
 20
-56.4584104823778716
 30
0.0
 11
4.4178342656170946
 21
-56.4584104823778716
 31
0.0
  0
LINE
  5
475
  8
0
 10
4.4178342656170946
 20
-56.4584104823778716
 30
0.0
 11
4.4178342656170946
 21
-56.758410482377883
 31
0.0
  0
LINE
  5
477
  8
0
 10
4.1178342656170983
 20
-56.758410482377883
 30
0.0
 11
4.1178342656170983
 21
-56.4584104823778716
 31
0.0
  0
LINE
  5
478
  8
0
 10
13.4178342656170795
 20
-55.9584104823778787
 30
0.0
 11
3.1178342656170979
 21
-55.9584104823778787
 31
0.0
  0
POLYLINE
  5
487
  8
0
 66
     1
 10
0.0
 20
0.0
 30
0.0
 70
     1
  0
VERTEX
  5
7A2
  8
0
 10
19.8178342656170798
 20
-57.1584104823778816
 30
0.0
  0
VERTEX
  5
7A3
  8
0
 10
26.1178342656170983
 20
-57.1584104823778816
 30
0.0
  0
VERTEX
  5
7A4
  8
0
 10
26.1178342656170983
 20
-56.8584104823778702
 30
0.0
  0
VERTEX
  5
7A5
  8
0
 10
19.8178342656170798
 20
-56.8584104823778702
 30
0.0
  0
SEQEND
  5
7A6
  8
0
  0
POLYLINE
  5
488
  8
0
 66
     1
 10
0.0
 20
0.0
 30
0.0
 70
     1
  0
VERTEX
  5
7A7
  8
0
 10
17.8178342656171083
 20
-56.8584104823778702
 30
0.0
  0
VERTEX
  5
7A8
  8
0
 10
26.1178342656170983
 20
-56.8584104823778702
 30
0.0
  0
VERTEX
  5
7A9
  8
0
 10
26.1178342656170983
 20
-56.5584104823778802
 30
0.0
  0
VERTEX
  5
7AA
  8
0
 10
17.8178342656171083
 20
-56.5584104823778802
 30
0.0
  0
SEQEND
  5
7AB
  8
0
  0
POLYLINE
  5
489
  8
0
 66
     1
 10
0.0
 20
0.0
 30
0.0
 70
     1
  0
VERTEX
  5
7AC
  8
0
 10
15.81783426561711
 20
-56.5584104823778802
 30
0.0
  0
VERTEX
  5
7AD
  8
0
 10
26.1178342656170983
 20
-56.5584104823778802
 30
0.0
  0
VERTEX
  5
7AE
  8
0
 10
26.1178342656170983
 20
-56.258410482377883
 30
0.0
  0
VERTEX
  5
7AF
  8
0
 10
15.81783426561711
 20
-56.258410482377883
 30
0.0
  0
SEQEND
  5
7B0
  8
0
  0
POLYLINE
  5
48A
  8
0
 66
     1
 10
0.0
 20
0.0
 30
0.0
 70
     1
  0
VERTEX
  5
7B1
  8
0
 10
15.81783426561711
 20
-56.258410482377883
 30
0.0
  0
VERTEX
  5
7B2
  8
0
 10
26.1178342656170983
 20
-56.258410482377883
 30
0.0
  0
VERTEX
  5
7B3
  8
0
 10
26.1178342656170983
 20
-55.9584104823778787
 30
0.0
  0
VERTEX
  5
7B4
  8
0
 10
15.81783426561711
 20
-55.9584104823778787
 30
0.0
  0
SEQEND
  5
7B5
  8
0
  0
POLYLINE
  5
48B
  8
0
 66
     1
 10
0.0
 20
0.0
 30
0.0
 70
     1
  0
VERTEX
  5
7B6
  8
0
 10
19.8178342656170798
 20
-58.3584104823778631
 30
0.0
  0
VERTEX
  5
7B7
  8
0
 10
26.1178342656170983
 20
-58.3584104823778631
 30
0.0
  0
VERTEX
  5
7B8
  8
0
 10
26.1178342656170983
 20
-58.0584104823778731
 30
0.0
  0
VERTEX
  5
7B9
  8
0
 10
19.8178342656170798
 20
-58.0584104823778731
 30
0.0
  0
SEQEND
  5
7BA
  8
0
  0
POLYLINE
  5
48C
  8
0
 66
     1
 10
0.0
 20
0.0
 30
0.0
 70
     1
  0
VERTEX
  5
7BB
  8
0
 10
17.8178342656171083
 20
-58.0584104823778731
 30
0.0
  0
VERTEX
  5
7BC
  8
0
 10
26.1178342656170983
 20
-58.0584104823778731
 30
0.0
  0
VERTEX
  5
7BD
  8
0
 10
26.1178342656170983
 20
-57.7584104823778617
 30
0.0
  0
VERTEX
  5
7BE
  8
0
 10
17.8178342656171083
 20
-57.7584104823778617
 30
0.0
  0
SEQEND
  5
7BF
  8
0
  0
POLYLINE
  5
48D
  8
0
 66
     1
 10
0.0
 20
0.0
 30
0.0
 70
     1
  0
VERTEX
  5
7C0
  8
0
 10
15.81783426561711
 20
-57.7584104823778617
 30
0.0
  0
VERTEX
  5
7C1
  8
0
 10
26.1178342656170983
 20
-57.7584104823778617
 30
0.0
  0
VERTEX
  5
7C2
  8
0
 10
26.1178342656170983
 20
-57.4584104823778716
 30
0.0
  0
VERTEX
  5
7C3
  8
0
 10
15.81783426561711
 20
-57.4584104823778716
 30
0.0
  0
SEQEND
  5
7C4
  8
0
  0
POLYLINE
  5
48E
  8
0
 66
     1
 10
0.0
 20
0.0
 30
0.0
 70
     1
  0
VERTEX
  5
7C5
  8
0
 10
15.81783426561711
 20
-57.4584104823778716
 30
0.0
  0
VERTEX
  5
7C6
  8
0
 10
26.1178342656170983
 20
-57.4584104823778716
 30
0.0
  0
VERTEX
  5
7C7
  8
0
 10
26.1178342656170983
 20
-57.1584104823778816
 30
0.0
  0
VERTEX
  5
7C8
  8
0
 10
15.81783426561711
 20
-57.1584104823778816
 30
0.0
  0
SEQEND
  5
7C9
  8
0
  0
POLYLINE
  5
48F
  8
0
 66
     1
 10
0.0
 20
0.0
 30
0.0
 70
     1
  0
VERTEX
  5
7CA
  8
0
 10
19.8178342656170798
 20
-59.5584104823778517
 30
0.0
  0
VERTEX
  5
7CB
  8
0
 10
26.1178342656170983
 20
-59.5584104823778517
 30
0.0
  0
VERTEX
  5
7CC
  8
0
 10
26.1178342656170983
 20
-59.2584104823778475
 30
0.0
  0
VERTEX
  5
7CD
  8
0
 10
19.8178342656170798
 20
-59.2584104823778475
 30
0.0
  0
SEQEND
  5
7CE
  8
0
  0
POLYLINE
  5
490
  8
0
 66
     1
 10
0.0
 20
0.0
 30
0.0
 70
     1
  0
VERTEX
  5
7CF
  8
0
 10
17.8178342656171083
 20
-59.2584104823778475
 30
0.0
  0
VERTEX
  5
7D0
  8
0
 10
26.1178342656170983
 20
-59.2584104823778475
 30
0.0
  0
VERTEX
  5
7D1
  8
0
 10
26.1178342656170983
 20
-58.9584104823778574
 30
0.0
  0
VERTEX
  5
7D2
  8
0
 10
17.8178342656171083
 20
-58.9584104823778574
 30
0.0
  0
SEQEND
  5
7D3
  8
0
  0
POLYLINE
  5
491
  8
0
 66
     1
 10
0.0
 20
0.0
 30
0.0
 70
     1
  0
VERTEX
  5
7D4
  8
0
 10
15.81783426561711
 20
-58.9584104823778574
 30
0.0
  0
VERTEX
  5
7D5
  8
0
 10
26.1178342656170983
 20
-58.9584104823778574
 30
0.0
  0
VERTEX
  5
7D6
  8
0
 10
26.1178342656170983
 20
-58.6584104823778603
 30
0.0
  0
VERTEX
  5
7D7
  8
0
 10
15.81783426561711
 20
-58.6584104823778603
 30
0.0
  0
SEQEND
  5
7D8
  8
0
  0
POLYLINE
  5
492
  8
0
 66
     1
 10
0.0
 20
0.0
 30
0.0
 70
     1
  0
VERTEX
  5
7D9
  8
0
 10
15.81783426561711
 20
-58.6584104823778603
 30
0.0
  0
VERTEX
  5
7DA
  8
0
 10
26.1178342656170983
 20
-58.6584104823778603
 30
0.0
  0
VERTEX
  5
7DB
  8
0
 10
26.1178342656170983
 20
-58.3584104823778631
 30
0.0
  0
VERTEX
  5
7DC
  8
0
 10
15.81783426561711
 20
-58.3584104823778631
 30
0.0
  0
SEQEND
  5
7DD
  8
0
  0
POLYLINE
  5
493
  8
0
 66
     1
 10
0.0
 20
0.0
 30
0.0
 70
     1
  0
VERTEX
  5
7DE
  8
0
 10
19.8178342656170798
 20
-60.7584104823778404
 30
0.0
  0
VERTEX
  5
7DF
  8
0
 10
26.1178342656170983
 20
-60.7584104823778404
 30
0.0
  0
VERTEX
  5
7E0
  8
0
 10
26.1178342656170983
 20
-60.4584104823778432
 30
0.0
  0
VERTEX
  5
7E1
  8
0
 10
19.8178342656170798
 20
-60.4584104823778432
 30
0.0
  0
SEQEND
  5
7E2
  8
0
  0
POLYLINE
  5
494
  8
0
 66
     1
 10
0.0
 20
0.0
 30
0.0
 70
     1
  0
VERTEX
  5
7E3
  8
0
 10
17.8178342656171083
 20
-60.4584104823778432
 30
0.0
  0
VERTEX
  5
7E4
  8
0
 10
26.1178342656170983
 20
-60.4584104823778432
 30
0.0
  0
VERTEX
  5
7E5
  8
0
 10
26.1178342656170983
 20
-60.1584104823778532
 30
0.0
  0
VERTEX
  5
7E6
  8
0
 10
17.8178342656171083
 20
-60.1584104823778532
 30
0.0
  0
SEQEND
  5
7E7
  8
0
  0
POLYLINE
  5
495
  8
0
 66
     1
 10
0.0
 20
0.0
 30
0.0
 70
     1
  0
VERTEX
  5
7E8
  8
0
 10
15.81783426561711
 20
-60.1584104823778532
 30
0.0
  0
VERTEX
  5
7E9
  8
0
 10
26.1178342656170983
 20
-60.1584104823778532
 30
0.0
  0
VERTEX
  5
7EA
  8
0
 10
26.1178342656170983
 20
-59.8584104823778489
 30
0.0
  0
VERTEX
  5
7EB
  8
0
 10
15.81783426561711
 20
-59.8584104823778489
 30
0.0
  0
SEQEND
  5
7EC
  8
0
  0
POLYLINE
  5
496
  8
0
 66
     1
 10
0.0
 20
0.0
 30
0.0
 70
     1
  0
VERTEX
  5
7ED
  8
0
 10
15.81783426561711
 20
-59.8584104823778489
 30
0.0
  0
VERTEX
  5
7EE
  8
0
 10
26.1178342656170983
 20
-59.8584104823778489
 30
0.0
  0
VERTEX
  5
7EF
  8
0
 10
26.1178342656170983
 20
-59.5584104823778517
 30
0.0
  0
VERTEX
  5
7F0
  8
0
 10
15.81783426561711
 20
-59.5584104823778517
 30
0.0
  0
SEQEND
  5
7F1
  8
0
  0
POLYLINE
  5
497
  8
OUTLINE
 66
     1
 10
0.0
 20
0.0
 30
0.0
 70
     1
  0
VERTEX
  5
7F2
  8
OUTLINE
 10
2.8486238651385061
 20
-35.1799588635590226
 30
0.0
  0
VERTEX
  5
7F3
  8
OUTLINE
 10
26.4223138812512914
 20
-35.1799588635590226
 30
0.0
  0
VERTEX
  5
7F4
  8
OUTLINE
 10
26.4223138812512914
 20
-61.8294812387273325
 30
0.0
  0
VERTEX
  5
7F5
  8
OUTLINE
 10
2.8486238651385061
 20
-61.8294812387273325
 30
0.0
  0
SEQEND
  5
7F6
  8
OUTLINE
  0
INSERT
  5
4B4
  8
OUTLINE
  2
*U2
 10
0.0
 20
0.0
 30
0.0
  0
POLYLINE
  5
4B8
  8
0
 66
     1
 10
0.0
 20
0.0
 30
0.0
  0
VERTEX
  5
7FC
  8
0
 10
114.5658540914685943
 20
-24.3126126283613893
 30
0.0
  0
VERTEX
  5
7FD
  8
0
 10
117.7984968033328954
 20
-18.7140612682777707
 30
0.0
  0
VERTEX
  5
7FE
  8
0
 10
117.5305410778417041
 20
-18.5593417582832387
 30
0.0
  0
VERTEX
  5
7FF
  8
0
 10
114.2085622387905062
 20
-24.3126126283613893
 30
0.0
  0
SEQEND
  5
800
  8
0
  0
POLYLINE
  5
4B9
  8
0
 66
     1
 10
0.0
 20
0.0
 30
0.0
  0
VERTEX
  5
801
  8
0
 10
117.0323024459350023
 20
-19.4222316038173304
 30
0.0
  0
VERTEX
  5
802
  8
0
 10
112.2954476563891006
 20
-11.2231814926939002
 30
0.0
  0
VERTEX
  5
803
  8
0
 10
112.0274787675271995
 20
-11.3778782030614796
 30
0.0
  0
VERTEX
  5
804
  8
0
 10
116.8536816628839006
 20
-19.7315814816185515
 30
0.0
  0
SEQEND
  5
805
  8
0
  0
POLYLINE
  5
4BA
  8
0
 66
     1
 10
0.0
 20
0.0
 30
0.0
  0
VERTEX
  5
806
  8
0
 10
120.0363924503107
 20
-24.6220288487234988
 30
0.0
  0
VERTEX
  5
807
  8
0
 10
129.5010941983032922
 20
-24.6220288487234988
 30
0.0
  0
VERTEX
  5
808
  8
0
 10
129.5011073616740873
 20
-24.3126126283613893
 30
0.0
  0
VERTEX
  5
809
  8
0
 10
119.8576327543068061
 20
-24.3126126283613893
 30
0.0
  0
SEQEND
  5
80A
  8
0
  0
POLYLINE
  5
4BB
  8
0
 66
     1
 10
0.0
 20
0.0
 30
0.0
  0
VERTEX
  5
80B
  8
0
 10
114.0299031490806954
 20
-24.6220288487234988
 30
0.0
  0
VERTEX
  5
80C
  8
0
 10
109.2945287355945965
 20
-32.8231321645422867
 30
0.0
  0
VERTEX
  5
80D
  8
0
 10
109.5624844610857025
 20
-32.977851674536808
 30
0.0
  0
VERTEX
  5
80E
  8
0
 10
114.3871950017587977
 20
-24.6220288487234988
 30
0.0
  0
SEQEND
  5
80F
  8
0
  0
POLYLINE
  5
4BC
  8
0
 66
     1
 10
0.0
 20
0.0
 30
0.0
  0
VERTEX
  5
810
  8
0
 10
119.5002906034815027
 20
-24.3126126283613893
 30
0.0
  0
VERTEX
  5
811
  8
0
 10
113.0302965601614034
 20
-24.3126126283613786
 30
0.0
  0
VERTEX
  5
812
  8
0
 10
113.030283396790594
 20
-24.6220288487234988
 30
0.0
  0
VERTEX
  5
813
  8
0
 10
119.6790502994854961
 20
-24.6220288487234988
 30
0.0
  0
SEQEND
  5
814
  8
0
  0
POLYLINE
  5
4BD
  8
0
 66
     1
 10
0.0
 20
0.0
 30
0.0
  0
VERTEX
  5
815
  8
0
 10
117.0323778745054
 20
-20.0408878164858493
 30
0.0
  0
VERTEX
  5
816
  8
0
 10
120.2669616997433053
 20
-25.6396481859792509
 30
0.0
  0
VERTEX
  5
817
  8
0
 10
120.5349305886052065
 20
-25.4849514756116911
 30
0.0
  0
VERTEX
  5
818
  8
0
 10
117.2109986575566012
 20
-19.7315379386846104
 30
0.0
  0
SEQEND
  5
819
  8
0
  0
POLYLINE
  5
4BE
  8
0
 66
     1
 10
0.0
 20
0.0
 30
0.0
  0
VERTEX
  5
81A
  8
0
 10
134.2111505378896084
 20
-14.5550995443113003
 30
0.0
  0
VERTEX
  5
81B
  8
0
 10
134.2111505378896084
 20
-19.0638027128449288
 30
0.0
  0
SEQEND
  5
81C
  8
0
  0
POLYLINE
  5
4BF
  8
0
 66
     1
 10
0.0
 20
0.0
 30
0.0
  0
VERTEX
  5
81D
  8
0
 10
136.5111505378895913
 20
-14.2550995443112907
 30
0.0
  0
VERTEX
  5
81E
  8
0
 10
141.3283706947707969
 20
-14.2550995443112907
 30
0.0
  0
SEQEND
  5
81F
  8
0
  0
POLYLINE
  5
4C0
  8
0
 66
     1
 10
0.0
 20
0.0
 30
0.0
  0
VERTEX
  5
820
  8
0
 10
136.5111505378895913
 20
-11.9550995443112793
 30
0.0
  0
VERTEX
  5
821
  8
0
 10
136.5111505378895913
 20
-7.0638027128449323
 30
0.0
  0
SEQEND
  5
822
  8
0
  0
POLYLINE
  5
4C1
  8
0
 66
     1
 10
0.0
 20
0.0
 30
0.0
  0
VERTEX
  5
823
  8
0
 10
134.2111505378896084
 20
-12.2550995443112907
 30
0.0
  0
VERTEX
  5
824
  8
0
 10
137.2111505378896084
 20
-12.2550995443112907
 30
0.0
  0
VERTEX
  5
825
  8
0
 10
137.2111505378896084
 20
-11.9550995443112793
 30
0.0
  0
VERTEX
  5
826
  8
0
 10
134.2111505378896084
 20
-11.9550995443112793
 30
0.0
  0
SEQEND
  5
827
  8
0
  0
POLYLINE
  5
4C2
  8
0
 66
     1
 10
0.0
 20
0.0
 30
0.0
  0
VERTEX
  5
828
  8
0
 10
133.911150537889597
 20
-11.9550995443112793
 30
0.0
  0
VERTEX
  5
829
  8
0
 10
129.3283706947707117
 20
-11.9550995443112793
 30
0.0
  0
SEQEND
  5
82A
  8
0
  0
POLYLINE
  5
4C3
  8
0
 66
     1
 10
0.0
 20
0.0
 30
0.0
  0
VERTEX
  5
82B
  8
0
 10
136.2111505378896084
 20
-12.2550995443112907
 30
0.0
  0
VERTEX
  5
82C
  8
0
 10
136.2111505378896084
 20
-15.2550995443112907
 30
0.0
  0
VERTEX
  5
82D
  8
0
 10
136.5111505378895913
 20
-15.2550995443112907
 30
0.0
  0
VERTEX
  5
82E
  8
0
 10
136.5111505378895913
 20
-12.2550995443112907
 30
0.0
  0
SEQEND
  5
82F
  8
0
  0
POLYLINE
  5
4C4
  8
0
 66
     1
 10
0.0
 20
0.0
 30
0.0
  0
VERTEX
  5
830
  8
0
 10
136.2111505378896084
 20
-14.5550995443113003
 30
0.0
  0
VERTEX
  5
831
  8
0
 10
133.2111505378896084
 20
-14.5550995443113003
 30
0.0
  0
VERTEX
  5
832
  8
0
 10
133.2111505378896084
 20
-14.2550995443112907
 30
0.0
  0
VERTEX
  5
833
  8
0
 10
136.2111505378896084
 20
-14.2550995443112907
 30
0.0
  0
SEQEND
  5
834
  8
0
  0
POLYLINE
  5
4C5
  8
0
 66
     1
 10
0.0
 20
0.0
 30
0.0
  0
VERTEX
  5
835
  8
0
 10
133.911150537889597
 20
-14.2550995443112907
 30
0.0
  0
VERTEX
  5
836
  8
0
 10
133.911150537889597
 20
-11.2550995443112907
 30
0.0
  0
VERTEX
  5
837
  8
0
 10
134.2111505378896084
 20
-11.2550995443112907
 30
0.0
  0
VERTEX
  5
838
  8
0
 10
134.2111505378896084
 20
-14.2550995443112907
 30
0.0
  0
SEQEND
  5
839
  8
0
  0
POLYLINE
  5
4C6
  8
0
 66
     1
 10
0.0
 20
0.0
 30
0.0
  0
VERTEX
  5
83A
  8
0
 10
129.3283706947707117
 20
-12.2550995443112907
 30
0.0
  0
VERTEX
  5
83B
  8
0
 10
129.3283706947707117
 20
-11.9550995443112793
 30
0.0
  0
SEQEND
  5
83C
  8
0
  0
POLYLINE
  5
4C7
  8
0
 66
     1
 10
0.0
 20
0.0
 30
0.0
  0
VERTEX
  5
83D
  8
0
 10
136.2111505378896084
 20
-7.0638027128449332
 30
0.0
  0
VERTEX
  5
83E
  8
0
 10
136.2111505378896084
 20
-11.9550995443112793
 30
0.0
  0
SEQEND
  5
83F
  8
0
  0
POLYLINE
  5
4C8
  8
0
 66
     1
 10
0.0
 20
0.0
 30
0.0
  0
VERTEX
  5
840
  8
0
 10
129.3283706947707117
 20
-12.2550995443112907
 30
0.0
  0
VERTEX
  5
841
  8
0
 10
133.911150537889597
 20
-12.2550995443112907
 30
0.0
  0
SEQEND
  5
842
  8
0
  0
POLYLINE
  5
4C9
  8
0
 66
     1
 10
0.0
 20
0.0
 30
0.0
  0
VERTEX
  5
843
  8
0
 10
133.911150537889597
 20
-19.0638027128449288
 30
0.0
  0
VERTEX
  5
844
  8
0
 10
133.911150537889597
 20
-14.5550995443113003
 30
0.0
  0
SEQEND
  5
845
  8
0
  0
POLYLINE
  5
4CA
  8
0
 66
     1
 10
0.0
 20
0.0
 30
0.0
  0
VERTEX
  5
846
  8
0
 10
141.3283706947707969
 20
-14.5550995443113003
 30
0.0
  0
VERTEX
  5
847
  8
0
 10
136.5111505378895913
 20
-14.5550995443113003
 30
0.0
  0
SEQEND
  5
848
  8
0
  0
POLYLINE
  5
4CB
  8
0
 66
     1
 10
0.0
 20
0.0
 30
0.0
  0
VERTEX
  5
849
  8
0
 10
136.2111505378896084
 20
-7.0638027128449323
 30
0.0
  0
VERTEX
  5
84A
  8
0
 10
136.5111505378895913
 20
-7.0638027128449323
 30
0.0
  0
SEQEND
  5
84B
  8
0
  0
POLYLINE
  5
4CC
  8
0
 66
     1
 10
0.0
 20
0.0
 30
0.0
  0
VERTEX
  5
84C
  8
0
 10
141.3283706947707969
 20
-14.2550995443112907
 30
0.0
  0
VERTEX
  5
84D
  8
0
 10
141.3283706947707969
 20
-14.5550995443113003
 30
0.0
  0
SEQEND
  5
84E
  8
0
  0
POLYLINE
  5
4CD
  8
0
 66
     1
 10
0.0
 20
0.0
 30
0.0
  0
VERTEX
  5
84F
  8
0
 10
134.2111505378896084
 20
-19.0638027128449288
 30
0.0
  0
VERTEX
  5
850
  8
0
 10
133.911150537889597
 20
-19.0638027128449288
 30
0.0
  0
SEQEND
  5
851
  8
0
  0
ENDSEC
  0
EOF
